Log in

One click and you are in

Login with Facebook Login with Google

Why sign up and log in

Guitar Tabs Explorer
Marilyn Manson tabs for Sweet tooth

Guitar tabs

Album: Portrait of an American Family
As tabbed by Joe Muggah


Intro A chord diagramA augmentedA (Guitar)                 Intro A chord diagramBB (Bass)
e-------------------------------|
B-------------------------------|
G-------------------------------|------------------------
D-------------------------------|------------------------
A--4-6---4-6---4-6---4-6---6\---|--4/6-6---4/6-6---------
E-------------------------------|------------------------

Fill 1                 Fill 2
e--12---------15^----|-----------------------------------
B--------------------|-----------------------------------
G-------12-----------|-----------------------------------
D--------------------|-----------------------------------
A--------------------|--9--8---9--8----------------------
E--------------------|-----------------------------------


Chorus
e-----------------------3--------------------------------
B-----------------------3--------------------------------
G-------4---------------4--------4--------------7--------
D--2-2--4--2-5---2-7-7--5---2-2--4--2-5--2-7-7--7--------
A--2-2--2--2-5---2-7-7--5---2-2--2--2-5--2-7-7--5--------
E--0-0-----0-3---0-5-5--3---0-0-----0-3--0-5-5-----------

Bass Verse
G--------------------------------------------------------
D--------------------------------------------------------
A--7-7-7-7--6-6-6-6--5-5-5-5--6-6-6-6--------------------
E--------------------------------------------------------
("Her heart shivers...")

Verse (each hit 4 times)          end on
e----------------------------------|---------------------
B----------------------------------|---------------------
G--9m--8m--7m--8m--9m--8m--7m--8m--|--9---8---7---8------
D--9m--8m--7m--8m--9m--8m--7m--8m--|--9---8---7---8------
A--7m--6m--5m--6m--7m--6m--5m--6m--|--7---7---5---6------
E----------------------------------|---------------------


Solo (Synthasizer arranged for guitar)
e--10-12-12-12-------------------------------------------
B---------------11-11-11-11-12-12-11-11-10-----11-11-----
G------------------------------------------12--------12--
D--------------------------------------------------------
A--------------------------------------------------------
E--------------------------------------------------------

(continued)
e--------------------------------------------------------
B--------------------------------------------------------
G--12-9-9------------------------------7-7-9-9---12-11---
D---------8-8------------------7-7-8-8-------------------
A-------------10-7---7-7-10-10---------------------------
E--------------------------------------------------------

(continued)
e--------------------------------------------------------
B--------------------------------------------------------
G--12-11-11----12-12-12-12-------------------------------
D--------------------------------------------------------
A--------------------------------------------------------
E--------------------------------------------------------


Bridge
e-----|--------------------------------------------------
B-----|--------------------------------------------------
G--7--|--7--/--8--/--9----7--/--8--/--9------------------
D--7--|--7--/--8--/--9----7--/--8--/--9------------------
A--5--|--5--/--6--/--7----5--/--6--/--7------------------
E-----|--------------------------------------------------


Intro A chord diagramA augmentedA

Intro A, A chord diagramBB
Fill 1
Bass Verse
Bass Verse, Fill 2
Bass Verse, Verse

Chorus
Bass Verse, Solo
Bass Verse
Bass Verse, Verse

Bridge

Chorus

Almost there ...

Sign in to get your own page with links to favourite songs and more. You are just one click away...

Login with Facebook Login with Google