Log in

One click and you are in

Login with Facebook Login with Google

Why sign up and log in

Guitar Tabs Explorer
Marilyn Manson tabs for Sweet dreams

Guitar tabs

Album: Smells Like Children


Verse 1 (Guitar 1)
e--------------------------------------------------------
B--------------------------------------------------------
G--------------------------------------------------------
D-------5-----6-----5------------------------------------
A-3--3-----3-----3-----3----------6/8----------5/6-------
E--------------------------4--4---------3--3-------------
("Sweet dreams are made of these...")

(or
E--------------------------------------------------------
B--------------------------------------------------------
G-------0-----1-----0------------------------------------
D-----------------------------------0--3---------0--1----
A-3--3-----3-----3-----3---------------------------------
E--------------------------4--4------------3--3----------)


Pre-Chorus 1 (Guitar 2)
e--------------------------------------------------------
B--------------------------------------------------------
G-5------------5m----------------------------------------
D-5------------5m------------5^--------------------------
A-3------------3m-------6----5^--------------------------
E----------------------------3^--------------------------


Chorus
e--------------------------------------------------------
B--------------------------------------------------------
G---------------5----------------------------------------
D-6--------5-5--5-(x8)--6-------5---6-------5------------
A-6-(x14)--5-5--3-------6-(x7)--5---6-(x8)--5-(x7)-------
E-4--------3-3----------4-------3---4-------3------------

*Verse 2
e--------------------------------------------------------
B--------------------------------------------------------
G--------------------------------------------------------
D-------5-----6-----5------------------------------------
A-3--3-----3-----3-----3---------6/8----------5-6--------
E--------------------------4--4--------3--3--------------
*Verse 2 is almost the same as verse one except the
last note is hit instead of slid to.

Pre-Chorus 2 (Guitar 2, palm muted)
e--------------------------------------------------------
B--------------------------------------------------------
G-5---------------5--------------------------------------
D-5-----6---5-----5-----6---5----------------------------
A-3-----6---5-----3-----6---5----------------------------
E-------4---3-----------4---3----------------------------
("Some of them want to use you...")


Solo 1
e--------------------------------------------------------
B---------3^----------3^----------3^----------6^---------
G-5--3-5------5--3-5------5--3-5------5--3-5-------------
D--------------------------------------------------------
A--------------------------------------------------------
E--------------------------------------------------------

(continued)
e--------------------------------------------------------
B---------3^--------------3^-----------------------------
G-5--3-5------5-5p3p0--5---------------------------------
D--------------------------------------------------------
A--------------------------------------------------------
E--------------------------------------------------------


Bridge (palm muted)                end on
e----------------------------------|---------------------
B----------------------------------|---------------------
G-5-----------5-----------5--------|---------------------
D-5-----6-----5-----6-----5-----6--|-6--6--6-------------
A-3-----6-----3-----6-----3-----6--|-6--6--6-------------
E-------4-----------4-----------4--|-4--4--4-------------
("Moving on...")


Solo 2
e--------11----------------------------------------------
B-11--13-----11--13-11-----------------------------------
G----------------------11^-------------------------------
D----------------------------10--8--10-----------10-10-10
A---------------------------------------9^-9^-9^---------
E--------------------------------------------------------

(continued)
e-------------------------------------------11--13-14^---
B---------------------------------11-13--11------------13
G----------------------------11^-------------------------
D-10m-13m----8--10-12h13^-12-----------------------------
A---------8^---------------------------------------------
E--------------------------------------------------------


Solo 3
e--------------------------------------------------------
B--------3^-3----------6^----------3^--------------------
G-5--3-5-------5--3-5------5--3-5------5--3-5--5---------
D--------------------------------------------------------
A--------------------------------------------------------
E--------------------------------------------------------

(continued)
e----------------10-11^-------------14^------------10-11^
B-13--13p11--13----------13--11-13-------13--11-13-------
G--------------------------------------------------------
D--------------------------------------------------------
A--------------------------------------------------------
E--------------------------------------------------------

(continued)
e----------------10-11^---14^----------------------------
B-13--13p11--13------------------------3^----------------
G--------------------------------------------------------
D--------------------------------------------------------
A--------------------------------------------------------
E--------------------------------------------------------


Verse 1

Verse 1, Pre-Chorus 1

Chorus

Verse 1 (with wah)

Verse 2

Verse 2, Pre-Chorus 2

Chorus, Solo 1

Bridge

Verse 1, Solo 2

Verse 2, Pre-Chorus 2

Chorus, Solo 3

Other versions of Sweet Dreams

Sweet dreamsChords
Sweet dreams are made of this acousticChords
Sweet dreams (Ver. 2)Tabs
Sweet dreams are made of thisTabs
Sweet dreams are made of this (Ver. 2)Tabs

Almost there ...

Sign in to get your own page with links to favourite songs and more. You are just one click away...

Login with Facebook Login with Google