Log in

One click and you are in

Login with Facebook Login with Google

Why sign up and log in

Guitar Tabs Explorer
Marilyn Manson chords for Sweet dreams

Guitar chords

song: Sweet Dreams
Album: Anticrist superstar
Tabbed By:  Jonmikal Mosher
        xdirtryderx@aol
This is the way i play the song.


Intro:


e|-------------------------------------------------
b|-------------------------------------------------
g|-------------------------------------------------
d|---------5----6----5-----------------------------
a|---3-3-----3----3----3-------- 5-6------5-6------
e|---------------------------4-4------3-3----------

play 2or 3 times cant remember


chorus:


e|---------------------------------------------------------------------|
b|---------------------------------------------------------------------|
g|---------------------------------------------------------------------|
d|-5---5-5-5-5-5-5-5----4--4-4-4-4-4-4-4---9-9-9-9-9-9-9-9---5-5-5-4-5-|
a|-5---5-5-5-5-5-5-5----4--4-4-4-4-4-4-4---9-9-9-9-9-9-9-9---5-5-5-4-5-|
e|-3---3-3-3-3-3-3-3----2--2-2-2-2-2-2-2---7-7-7-7-7-7-7-7---3-3-3-2-3-|


thats realy the whole song and its realy easy to learn just on the chorus .
and the intro play all as one and just keep playing it over and over and
that is the song(easy right)

well ,later

Other versions of Sweet Dreams

Sweet dreams are made of this acousticChords
Sweet dreamsTabs
Sweet dreams (Ver. 2)Tabs
Sweet dreams are made of thisTabs
Sweet dreams are made of this (Ver. 2)Tabs

Almost there ...

Sign in to get your own page with links to favourite songs and more. You are just one click away...

Login with Facebook Login with Google