Log in

One click and you are in

Login with Facebook Login with Google

Why sign up and log in

Guitar Tabs Explorer
Marilyn Manson bass tabs for Sweet dreams

Bass tabs

Verse: Repeat these notes as necessary
G------------------------------------------------
D------------------------------------------------
A----3-------------------------------------------
E-------4--3-------------------------------------

Later in the Verse: Repeat these notes as necessary
G------------------------------------------------
D------------------------------------------------
A----3----6-------------------------------------
E--------------4---3-----------------------------


Chorus: Repeat these notes as necessary
G------------------------------------------------
D------------------------------------------------
A-----------------3------6-----------------------
E-----4----3-----------------4-----3----4----3---

Before Solo
G------------------------------------------------D------------------------------------------------
A-----3------------------------------------------
E-------------4----------------------------------

This tab is correct but if there are any problems email me at ryknow09@hotmail.com

Other versions of Sweet Dreams

Sweet dreams (are made of this)Bass tabs

Almost there ...

Sign in to get your own page with links to favourite songs and more. You are just one click away...

Login with Facebook Login with Google