Log in

One click and you are in

Login with Facebook Login with Google

Why sign up and log in

Guitar Tabs Explorer
Marilyn Manson bass tabs for Sweet dreams (are made of this)

Sweet Dreams (are Made Of This) bass tab by Marilyn Manson

Marilyn Manson bass tabs for Sweet dreams (are made of this)

Bass tabs

Track 6 from Smells Like Children - Sweet Dreams (Are Made of This)


Tuning - Standard
Intro - Guitar

     Intro
G |-------------------|
D |-------------------| X5
A |--3-3-3-3-3-3-3-3--|
E |-------------------|

G |-------------------|-------------------|--------------------|
D |-------------------|-------------------|--------------------|
A |-------------------|--3-3-3-3-3-3-3-3--|---------------6/0--|
E |--4-4-4-4-3-3-3-3--|-------------------|--4-4-4-4-3-3-------|

               Pre Verse
G |-------------------|-----------------|-----------------|-------------------|
D |-------------------|-----------------|-----------------|-------------------|
A |-------------------|-----------------|--3-3-3-3-3-3-6--|-------------------|
E |--4-4-4-4-4-4-4-4--|--4-4-4-4-4-3-3--|-----------------|--4-4-4-4-4-4-4-3--|

G |-------------------|------------------|
D |-------------------|------------------|
A |-------------------|------------------|
E |--4-4-4-4-4-4-4-4--|--3-3-3-3-3-3-3/--|

 Break (Instrumental) / Verse
G |--------------------|
D |--------------------|
A |--------------------|
E |--\8-----4------3/--|

          "Some of them want to use you"
G |------------------|------------------|------------------|-----------------|
D |---------------5--|------------------|---------------5--|---------------6-| X2
A |------------------|------------------|------------------|-----------------|
E |--8-8-8-8-8-8-----|--4-4-4-4-3-3-3/--|--8-8-8-8-8-8-----|--4-4-4-4-3-3----|

Bridge - Repeat Pre Verse

  "Moving On"
G |------------|
D |------------| X3
A |------------|
E |--8------4--|

G |----------------|
D |----------------|
A |----------------|
E |--8------4-4-4--|

       Instrumental Break
G |-------------------|------------------|
D |-------------------|------------------| X3
A |-------------------|------------------|
E |--8-8-8-8-8-8-8-8--|--4-4-4-4-3-3-3/--|

G |-------------------|-------------------|
D |-------------------|-------------------|
A |-------------------|-------------------|
E |--8-8-8-8-8-8-8-8--|--4-4-4-4-3-3-3/8--|


Break - Manson Sings

Repeat - "Some of them want to use you"

               Final Outro
G |-------------------|-----------------|-----------------|-------------------|
D |-------------------|-----------------|-----------------|-------------------|
A |-------------------|-----------------|--3-3-3-3-3-3-6--|-------------------|
E |--4-4-4-4-4-4-4-4--|--4-4-4-4-4-3-3--|-----------------|--4-4-4-4-4-4-4-3--|

G |-------------------|-----------------|-------------------|------------------|
D |-------------------|-----------------|-------------------|------------------|
A |-------------------|-----------------|-------------------|------------------|
E |--4-4-4-4-4-4-4-4--|--3-3-3-3-3-3-3--|--4-4-4-4-4-4-4-4--|--3-3-3-3-3-3-3/--|

G |-------------------|---------------------|
D |-------------------|---------------------|
A |-------------------|---------------------|
E |--8-8-8-8-8-8-8-8--|--4------3/------8/--|

Other versions of Sweet Dreams

Sweet dreamsBass tabs

Almost there ...

Sign in to get your own page with links to favourite songs and more. You are just one click away...

Login with Facebook Login with Google