Log in

One click and you are in

Login with Facebook Login with Google

Why sign up and log in

Guitar Tabs Explorer
Marilyn Manson tabs for Suicide is painless

Guitar tabs

Album: From Highway to Hell
As tabbed by Joe Muggah

All riffs are piano arranged for guitar.
Intro
e--------------------------------------------------------
B---------0-----------0----------0-----------0-----------
G---------5-----------5----------5-----------5-----------
D------4-----------4----------4-----------4--------------
A--2-----------2----------2-----------2------------------
E--------------------------------------------------------


Verse
e--------------------------------------------------------
B-------8---------8---------8----------8-----------8-----
G------11--------11--------11---------11----------11-----
D---------------------0----------------------------------
A-----------0--------------------------------------------
E--0-----------------------------7-----------7-----------
("The early morning fog I see...")


Chorus
e------7---7--------7---7--------5---5-------5---5-------
B------8---8--------8---8--------8---8-------8---8-------
G--------------------------------------------------------
D----------------------------0---------------------------
A--7------------0----------------------------------------
E----------------------------------------7---------------
("Suicide is painless...")

(continued)
e--------------------------------------------------------
B--8-----8-----8-----8-----------------------------------
G--9-----9-----9-----9-----------------------------------
D--9-----7-----------7-----------------------------------
A-------------10-----------------------------------------
E--------------------------------------------------------


Intro

Verse

Chorus

Intro

Verse

Chorus

Intro

Verse

Chorus

Intro

Chorus (only the last half)

Intro

Almost there ...

Sign in to get your own page with links to favourite songs and more. You are just one click away...

Login with Facebook Login with Google