Log in

One click and you are in

Login with Facebook Login with Google

Why sign up and log in

Guitar Tabs Explorer
Marilyn Manson tabs for Speed of pain

Guitar tabs with lyrics

Album: Mechanical Animals
As tabbed by Joe Muggah


Chord List:
  A chord diagramE minorEm   A chord diagramC majorC  A chord diagramAsus2Asus2   A chord diagramG+G   A chord diagramF#F#  A chord diagramFF
e--0---0----0-----3---2---1-----------------------------
B--0---0----0-----3---2---1-----------------------------
G--0---0----2-----4---3---2-----------------------------
D--2---2----2-----5---4---3-----------------------------
A--2---3----0-----5---4---3-----------------------------
E--0--------------3---2---1-----------------------------

Intro A chord diagramA augmentedA (Guitar 1)
A chord diagramE minorEm   A chord diagramC majorC   A chord diagramE minorEm   A chord diagramC majorC   A chord diagramE minorEm   A chord diagramC majorC   A chord diagramE minorEm   A chord diagramC majorC   A chord diagramE minorEm   A chord diagramC majorC   A chord diagramE minorEm   A chord diagramC majorC

Strumming for the chords are as follows:
            A chord diagramE minorEm			  A chord diagramC majorC
e---0-0---0-0-0-0-0-0------0-0---0-0-0-0-0-0-----------
B---0-0---0-0-0-0-0-0------0-0---0-0-0-0-0-0-----------
G---0-0---0-0-0-0-0-0------0-0---0-0-0-0-0-0-----------
D-2-----2-----2-2-2-2----2-----2-----2-2-2-2-----------
A-2-----2-----2-2-2-2----3-----3-----3-3-3-3-----------
E-0-----0-----0-0-0-0----------------------------------

Imtro A chord diagramBB (Guitar 2)
e-----------------------------------------
B-----------------------------------------
G--2---0--0---------4---------------------
D-----------------------------------------
A--------------3--------------------------
E-----------------------------------------

Verse (verse 1 and two have the same chord pattern)
  A chord diagramE minorEm               A chord diagramC majorC           A chord diagramE minorEm               A chord diagramAsus2Asus2
They slit    our thr...
	 A chord diagramE minorEm           A chord diagramG+G          A chord diagramF#F#   A chord diagramE minorEm
and our milk    has been     devooooured.


Pre-Chorus A chord diagramA augmentedA (Guitar 1):
A chord diagramE minorEm        A chord diagramAsus2Asus2		     A chord diagramE minorEm
When you want it,    it goes a...
	       A chord diagramAsus2Asus2		  A chord diagramE minorEm
the times you h...
      A chord diagramAsus2Asus2			       A chord diagramC majorC
just re....                            free
       A chord diagramE minorEm		A chord diagramG+G	 A chord diagramF#F#   A chord diagramF5F5 A chord diagramE minorEm
that crack inside your fu...... heart is me.


Pre-Chorus A chord diagramBB (Guitar 2)
G------------------------------------------
D------7---5^-----------5^-----------------
A----7-------------------------------------
E--5-------------0--0----------------------


Chorus A chord diagramA augmentedA (Guitar 1):
A chord diagramE minorEm	   A chord diagramC majorC			    A chord diagramE minorEm                A chord diagramC majorC
I wanna outr...			    for ..


Chorus A chord diagramBB (Guitar 2):
e------------------------------------------
B------------------------------------------
G--2--4--0-------4---4---------------------
D------------------------------------------
A------------3-----------------------------
E------------------------------------------


Riff 1A (Guitar 1)
e-----------------------------------------------------
B----8---8--------------------------------------------
G---7---7---7---8---8-------5---5--------7---7--------
D--5---5---5---8---8---8---5---5---5----7---7---7-----
A-------------6---6---6---3---3---3----5---5---5------
E-----------------------------------------------------
"Lie to me..."


Riff 1B (Guitar 2, synthasizer arranged for guitar)
e------------------------------------------
B------------------------------------------
G------8-----3--5--------8----3--5--7------
D--5-----8-----------5-----8---------------
A------------------------------------------
E------------------------------------------


Riff 2A (Guitar 1, let ring after each strum)
e-----------------------------------------------------
B-----------------------------------------------------
G-----------------------------------------------------
D--6------------4-----------3------------3------------
A--6------------4-----------3------------3------------
E--4------------2-----------1------------1------------


Riff 2B (Guitar 2)
e-----------------------------------------------------
B-----------------------------------------------------
G-----------------------------------------------------
D----6---6--6----4---4--4----3---3--3----3---3--3-----
A---6---6-------4---4-------3---3-------3---3---------
E--4---4---4---2---2---2---1---1---1---1---1---1------


Riff 2C (Guitar 3, synthasizer arranged for guitar)
G-----------------------------------------------------
D-----------------5--3-------------------5--3---------
A--6--6--4--4--3---------6--6---3--4--3---------------
E-----------------------------------------------------


Intro A, A chord diagramBB

Verse 1

PreChorus A chord diagramA augmentedA

Chorus A chord diagramA augmentedA

Verse 2

Pre-Chorus A, A chord diagramBB

Chorus A, A chord diagramBB

Riff 1A

Riff 2A, 2B

Riff 1A, 1B

Riff 2A, 2B, 2C

This should be very accurate, and I don't think i'll ever
tab synthasizer on guitar again. ^_^

Other versions of Speed Of Pain

Speed of painChords

Almost there ...

Sign in to get your own page with links to favourite songs and more. You are just one click away...

Login with Facebook Login with Google