Log in

One click and you are in

Login with Facebook Login with Google

Why sign up and log in

Guitar Tabs Explorer
Marilyn Manson tabs for Snake eyes and sissies

Snake Eyes And Sissies tab by Marilyn Manson

Marilyn Manson tabs for Snake eyes and sissies

Guitar tabs

Album: Portrait of an Amercian Family
As tabbed by Joe Muggah


Intro 1
e---------------------------------------------------------
B---------------------------------------------------------
G---------------------------------------------------------
D---------------------------------------------------------
A--9--9-------9-------------------------------------------
E--------11-----11\----5/10---\---------------------------
Intro 2A (Guitar 1)
e---------------------------------------------------------
B---------------------------------------------------------
G---------------------------------------------------------
D--2--2---5\4--5\4---2--2---7/8--7/8----------------------
A--2--2---5\4--5\4---2--2---7/8--7/8----------------------
E--0--0---3\2--3\2---0--0---5/6--5/6----------------------


Intro 2B (Guitar 2)  Intro 2C (Synthasizer for guitar 3)
e------------------|--------------------------------------
B------------------|--------------------------------------
G------------------|--------------------------------------
D--8-8-8----8-8-8--|--------------------------------------
A--7-7-7----7-7-7--|--7--10---7--10---7--10---7--10-9-7---
E--6-6-6----6-6-6--|--------------------------------------


Verse 1A (Synthasizer for guitar 1)
e---------------------------------------------------------
B---------------------------------------------------------
G---------------------------------------------------------
D------------8---------------8----------------------------
A--7-10-9-7----7---7-10-9-7----7--------------------------
E---------------------------------------------------------

Verse 1B (Guitar 2)
e--10---------------------------------15^-----15^--15-15--
B-----11^-------------------------------------17^---------
G----------9---2/3^---9---14\12---9--------9--------------
D----------9----------9---14\12---9--------9--------------
A----------7----------7---12\10---7--------7--------------
E----------0----------0-----------0--------0--------------


Pre-Chorus
e--15-15^-------------------------------------------------
B---------------------------------------------------------
G-----------------------------------7m-7m-7m-7m-7m-7-7\---
D----------8m-8m-8m-8m-8m-8m-8m-8m--7m-7m-7m-7m-7m-7-7\---
A----------8m-8m-8m-8m-8m-8m-8m-8m--5m-5m-5m-5m-5m-5-5\---
E----------6m-6m-6m-6m-6m-6m-6m-6m------------------------
("Yeah yeah yeah yeah...")


Chorus
e---------------------------------------------------------
B---------------------------------------------------------
G-------------------------9-----------------------7-7-7-7-
D--2-5-2-7-8-2--2-5-2-7-8-9--2-5-2-7-8-2--8-8-8-8-7-7-7-7-
A--2-5-2-7-8-2--2-5-2-7-8-7--2-5-2-7-8-2--8-8-8-8-5-5-5-5-
E--0-3-0-5-6-0--0-3-0-5-6----0-3-0-5-6-0--6-6-6-6---------
("I ain't no workin' man...")

Post-Chorus
e---------------------------------------------------------
B---------------------------------------------------------
G-----------------------------------------7^--------------
D--2-2---5^---2-2---7^---2-2---5^---2-2---7^--------------
A--2-2---5^---2-2---7^---2-2---5^---2-2---5^--------------
E--0-0---3^---0-0---5^---0-0---3^---0-0-------------------


Verse 2
e--10----------------------------------15^------12^--15-15
B-----11^---------------------------------------12^-------
G---------9--9-------9--9--14\12--9--9-----9--9-----------
D---------9--9--2/5--9--9--14\12--9--9-----9--9-----------
A---------7--7-------7--7--12\10--7--7-----7--7-----------
E---------0--0-------0--0---------0--0-----0--0-----------


Riff 1
e---------------------------------------------------------
B---------------------------------------------------------
G---------------------------------------------------------
D--2-2----8-8----2-2----8-8-------------------------------
A--2-2----7-7----2-2----7-7-------------------------------
E--0-0----6-6----0-0----6-6-------------------------------


Bridge
e---------------------------------------------------------
B---------------------------------------------------------
G--------------------------------------------9-7----------
D--2-2---5-4---2-2---8-7---2-2---5-4---2-2---9-7----------
A--2-2---5-4---2-2---8-7---2-2---5-4---2-2---7-5----------
E--0-0---3-2---0-0---6-5---0-0---3-2---0-0----------------
("Just a boy...just a boy...")


Riff 2 (Synthasizer for guitar)
e---------------------------------------------------------
B---------------------------------------------------------
G------7--------------------------------------------------
D--8-----8-7-5--------------------------------------------
A--------------7------------------------------------------
E----------------6---6-5-3---5-6-5---5-6-5--3-------------


Intro 1

Intro 2A

Intro 1, 2A, 2B

Verse 1A

Verse 1A, 1B

Pre-Chorus

Chorus
Post-Chorus

Verse 1A

Verse 1A, 2

Pre-Chorus

Chorus

Riff 1
Post-Chorus

Bridge

Verse 1A

Riff 2

Chorus

Almost there ...

Sign in to get your own page with links to favourite songs and more. You are just one click away...

Login with Facebook Login with Google