Log in

One click and you are in

Login with Facebook Login with Google

Why sign up and log in

Guitar Tabs Explorer
Marilyn Manson bass tabs for Smells like children

Smells Like Children bass tab by Marilyn Manson

Marilyn Manson bass tabs for Smells like children

Bass tabs with lyrics

Title: Smells Like Children
Album: Unknown (Rarity/Live)
Tabbed By: Matt Messatzzia (the_endless_sustain@yahoo.com)


Tuning: Standard (EADG)

This was the original version of Kinderfeld, played live for a while before
Antichrist Superstar was released.. I like it more than the Antichrist
version, to be honest. You can find this on live bootlegs, such as the
Urination CD, or on mp3's from the internet.
Intro:

G|-------------------------------|
D|-------------------------------|
A|-------------------------------|
E|---0-0--12--12--12--12-0-10-12-|

Guitar comes in (every other measure just holds the 3's a little longer):

G|---------------------|
D|---------------------|
A|---------------------|
E|---0-7--6--2--3--3-5-|

The verse is just the above riff with each note being played at a quicker
steady beat, with the same rhythm.. so it will be more like
00777766662223333555 etc. If you don't understand, listen to the song.


Chorus ("So what so what.."):

G|------------------------------------|
D|------------------------------------|
A|------------------------------------|
E|----2-2-2-2-2-2-2-2-3-3-3-5-5-5-6-6-|


Bridge/Interlude:

G|--------------------------------------------------------------|
D|--------------------------------------------------------------|
A|---7-7-7-7-7-7-7--3-3-3-3-3-3-3-3 (Repeat X number of times)--|
E|--------------------------------------------------------------|


Bridge ends on:

G|------------------------------------------------------------------|
D|------------------------------------------------------------------|
A|---7-7-7-7-7-7-7--3-3-3-3-3-3-3-3--2-2-2-2-2-2-2-2--1-1-1-1-1-1-1-|
E|------------------------------------------------------------------|

That's about all of it, the order can easily be figured out by listening to
the song.

Almost there ...

Sign in to get your own page with links to favourite songs and more. You are just one click away...

Login with Facebook Login with Google