Log in

One click and you are in

Login with Facebook Login with Google

Why sign up and log in

Guitar Tabs Explorer
Marilyn Manson tabs for Slutgarden

Guitar tabs

Album: The Golden Age of Grotesque (2003)
As tabbed by Joe Muggah

Dropped A chord diagramD MajorD tuning

Verse 1 (palm muted)
e----------------------------------------------------------
B----------------------------------------------------------
G----------------------------------------------------------
D---------------------------------------3--0--3--5---------
A--3--5--3-3-5--3--5--6--5---5--3-3-5---3--0--3--5---------
D--0--0--0-0-0--0--0--0--0---0--0-0-0---3--0--3--5---------


Riff
e----------------------------------------------------------
B----------------------------------------------------------
G--7-----10-----8-----7-----7-----10-----8-----7-----------
D--x------x-----x-----x-----x------x-----x-----x-----------
A--5------8-----6-----5-----5------8-----6-----5-----------
D----------------------------------------------------------


Chorus
e----------------------------------------------------------
B----------------------------------------------------------
G----------------------------------------------------------
D--3-3-3-3-3-3--5--0---0-0-0-0-0---10--12------------------
A--3-3-3-3-3-3--5--0---0-0-0-0-0---10--12------------------
D--3-3-3-3-3-3--5--0---0-0-0-0-0---10--12------------------
("When I said we...")

Post-Chorus
e----------------------------------------------------------
B----------------------------------------------------------
G----------------------------------------------------------
D--6-6-6-6-6---7^----6-6-6-6-6---7^------------------------
A--6-6-6-6-6---------6-6-6-6-6-----------------------------
D--6-6-6-6-6---------6-6-6-6-6-----------------------------
("I'm unsafe...")


Verse 2
e----------------------------------------------------------
B----------------------------------------------------------
G-------7----------7----------7----------7-----------------
D----------------------------------------------------------
A--5----------8----------6----------5----------------------
D----------------------------------------------------------



Verse 1

Verse 1, Riff

Chorus
Post-Chorus

Verse 2

Verse 1

Chorus
Post-Chorus

Verse 2

Riff

Chorus

Verse 2



_________________________________________________________________

Other versions of Slutgarden

Slutgarden (Ver. 2)Tabs

Almost there ...

Sign in to get your own page with links to favourite songs and more. You are just one click away...

Login with Facebook Login with Google