Log in

One click and you are in

Login with Facebook Login with Google

Why sign up and log in

Guitar Tabs Explorer
Marilyn Manson bass tabs for Slutgarden

Bass tabs

Tablature 🏷Legend
----------------
L - tied note


D||-----------|-------------------|-------------------|-------------------|
A||-----------|-------------------|-------------------|-------------------|
E||-----------|-------------------|-------------------|-------------------|
B||-----------|-------------------|-------------------|-------------------|
-------------------|---------------------------|---------------------------|
-------------------|---------------------------|---------------------------|
-------------------|---------------------------|---------------1-----------|
-------------------|--3-----1-1-3--3-----4--3--|-----3----1-3-----3--1--3--|


---------------------------|---------------------------|-------------------|
---------------------------|---------------------------|-------------------|
---------------------------|---------------1-----------|-------------------|
--1-----3-3-2--1-----4--3--|-----3----1-3-----3--1--3--|-------------------|


-------------------|-------------------|-------------------|
-------------------|-------------------|-------------------|
-------------------|-------------------|-------------------|
-------------------|-------------------|-------------------|


---------------------------|---------------------------|
---------------------------|---------------------------|
---------------------------|---------------1-----1--3--|
--1--3--3-3-2--1-----4--3--|-----3----1-3-----3--------|


---------------------------|---------------------------|-------------------|
---------------------------|---------------------------|-------------------|
---------------------------|---------------1-----1--3--|-------------------|
--1--3--1-1-2--1-----4--3--|-----3----1-3-----3--------|-------------------|

-------------------|-------------------|-------------------|-------------------|
-------------------|-------------------|-------------------|-------------------|
-------------------|-------------------|-------------------|-------------------|
-------------------|-------------------|-------------------|-------------------|


--------------------------|---------------------------------|
--------------------------|---------------------------------|
--------------------------|---------------------------------|
--6--6--6--6--6--6--8--8--|--3--15--15--15--15--15--13--15--|


--------------------------|---------------------------------|
--------------------------|---------------------------------|
--------------------------|---------------------------------|
--6--6--6--6--6--6--8--8--|--3--15--15--15--15--15--13--15--|


--------------------------|---------------------------------|
--------------------------|---------------------------------|
--------------------------|---------------------------------|
--6--6--6--6--6--6--8--8--|--3--15--15--15--15--15--13--15--|


--------------------------|---------------------------------|
--------------------------|---------------------------------|
--------------------------|---------------------------------|
--6--6--6--6--6--6--8--8--|--3--15--15--15--15--15--13--15--|


--------------------------|--------------------------|
--------------------------|--------------------------|
--------------------------|--------------------------|
--9--9--9--9--9-----------|--9--9--9--9--9-----------|


--------------------------|--------------------------|
--------------------------|--------------------------|
--------------------------|--------------------------|
--9--9--9--9--9-----------|--9--9--9--9--9--L--L--1--|


---------------------------|---------------------------|
---------------------------|---------------------------|
---------------------------|---------------1-----------|
--3-----1-1-3--3-----4--3--|-----3----1-3-----------3--|


---------------------------|---------------------------|
---------------------------|---------------------------|
---------------------------|---------------1-----------|
--3-----1-1-3--3-----4--3--|-----3----1-3-----------3--|


---------------------------|---------------------------|
---------------------------|---------------------------|
---------------------------|---------------1-----------|
--3-----1-1-3--3-----4--3--|-----3----1-3--------------|

---------------------------|---------------------------|-----|-----|-----|-----|
---------------------------|---------------------------|-----|-----|-----|-----|
---------------------------|---------------1-----------|-----|-----|-----|-----|
--3-----1-1-3--3-----4--3--|-----3----1-3--------------|-----|-----|-----|-----|


---------------------------|---------------------------|
---------------------------|---------------------------|
---------------------------|---------------1-----------|
--1-----3-3-2--1-----4--3--|-----3----1-3-----3--1--3--|


---------------------------|--------------------------|
---------------------------|--------------------------|
---------------------------|--------------------------|
--1-----3-3-2--1-----4--3--|--3--L--L--L--L--L--L--L--|


--------------------------|---------------------------------|
--------------------------|---------------------------------|
--------------------------|---------------------------------|
--6--6--6--6--6--6--8--8--|--3--15--15--15--15--15--13--15--|


--------------------------|---------------------------------|
--------------------------|---------------------------------|
--------------------------|---------------------------------|
--6--6--6--6--6--6--8--8--|--3--15--15--15--15--15--13--15--|


--------------------------|---------------------------------|
--------------------------|---------------------------------|
--------------------------|---------------------------------|
--6--6--6--6--6--6--8--8--|--3--15--15--15--15--15--13--15--|


--------------------------|---------------------------------|
--------------------------|---------------------------------|
--------------------------|---------------------------------|
--6--6--6--6--6--6--8--8--|--3--15--15--15--15--15--13--15--|


--------------------------|--------------------------|
--------------------------|--------------------------|
--------------------------|--------------------------|
--9--9--9--9--9-----------|--9--9--9--9--9-----------|


--------------------------|--------------------------|
--------------------------|--------------------------|
--------------------------|--------------------------|
--9--9--9--9--9-----------|--9--9--9--9--9--L--L--1--|


---------------------------|---------------------------|
---------------------------|---------------------------|
---------------------------|---------------1-----------|
--3-----1-1-3--3-----4--3--|-----3----1-3-----------3--|


---------------------------|---------------------------|
---------------------------|---------------------------|
---------------------------|---------------1-----------|
--3-----1-1-3--3-----4--3--|-----3----1-3-----------3--|


---------------------------|---------------------------|
---------------------------|---------------------------|
---------------------------|---------------1-----------|
--3-----1-1-3--3-----4--3--|-----3----1-3-----------3--|


---------------------------|---------------------------|
---------------------------|---------------------------|
---------------------------|---------------1-----------|
--3-----1-1-3--3-----4--3--|-----3----1-3-----------3--|


---------------------------|---------------------------|
---------------------------|---------------------------|
---------------------------|---------------1-----------|
--3-----1-1-3--3-----4--3--|-----3----1-3-----------3--|


---------------------------|---------------------------|--------------|
---------------------------|---------------------------|--------------|
---------------------------|---------------1-----1--3--|--L--L--L--L--|
--3-----1-1-3--3-----4--3--|-----3----1-3--------------|--------------|


--------------------------|---------------------------------|
--------------------------|---------------------------------|
--------------------------|---------------------------------|
--6--6--6--6--6--6--8--8--|--3--15--15--15--15--15--13--15--|


--------------------------|---------------------------------|
--------------------------|---------------------------------|
--------------------------|---------------------------------|
--6--6--6--6--6--6--8--8--|--3--15--15--15--15--15--13--15--|


--------------------------|---------------------------------|
--------------------------|---------------------------------|
--------------------------|---------------------------------|
--6--6--6--6--6--6--8--8--|--3--15--15--15--15--15--13--15--|


--------------------------|---------------------------------|
--------------------------|---------------------------------|
--------------------------|---------------------------------|
--6--6--6--6--6--6--8--8--|--3--15--15--15--15--15--13--15--|


--------------------------|---------------------------------|
--------------------------|---------------------------------|
--------------------------|---------------------------------|
--6--6--6--6--6--6--8--8--|--3--15--15--15--15--15--13--15--|


--------------------------|---------------------------------|
--------------------------|---------------------------------|
--------------------------|---------------------------------|
--6--6--6--6--6--6--8--8--|--3--15--15--15--15--15--13--15--|


--------------------------|---------------------------------|
--------------------------|---------------------------------|
--------------------------|---------------------------------|
--6--6--6--6--6--6--8--8--|--3--15--15--15--15--15--13--15--|


--------------------------|---------------------------------|
--------------------------|---------------------------------|
--------------------------|---------------------------------|
--6--6--6--6--6--6--8--8--|--3--15--15--15--15--15--13--15--|


---------------------------|---------------------------|
---------------------------|---------------------------|
---------------------------|---------------1-----------|
--3-----1-1-3--3-----4--L--|-----3----1-3--------1--3--|


---------------------------|---------------------------|
---------------------------|---------------------------|
---------------------------|---------------1-----------|
--3-----1-1-3--3-----4--L--|-----3----1-3--------1--3--|


---------------------------|---------------------------|
---------------------------|---------------------------|
---------------------------|---------------1-----------|
--3-----1-1-3--3-----4--L--|-----3----1-3--------1--3--|


---------------------------|---------------------------|-----|-----|-----|
---------------------------|---------------------------|-----|-----|-----|
---------------------------|---------------1-----------|-----|-----|-----|
--3-----1-1-3--3-----4--L--|-----3----1-3--------1--3--|-----|-----|-----|
-----||
-----||
-----||

Almost there ...

Sign in to get your own page with links to favourite songs and more. You are just one click away...

Login with Facebook Login with Google