Log in

One click and you are in

Login with Facebook Login with Google

Why sign up and log in

Guitar Tabs Explorer
Marilyn Manson tabs for Rock n roll nigger

Guitar tabs

Album: From Highway to Hell
As tabbed by Joe Muggah

Dropped A chord diagramD MajorD
m = palm mute
Intro
e-----------------------------------------------------------
B-----------------------------------------------------------
G-------------------7/9\--------------------7/9\------------
D--2m-2m-2m-2m-2m---7/9\---2m-2m-2m-2m-2m---7/9\------------
A--2m-2m-2m-2m-2m---5/7\---2m-2m-2m-2m-2m---5/7\------------
D--2m-2m-2m-2m-2m----------2m-2m-2m-2m-2m-------------------

(continued)                               end on
e------------------------------------------|-0---0----------
B------------------------------------------|-0---0----------
G-------------------7/9\----x-7-7----------|-1---1----------
D--2m-2m-2m-2m-2m---7/9\----x-7-7---x-7-7--|-2---2------0h2-
A--2m-2m-2m-2m-2m---5/7\----x-5-5---x-7-7--|-2---2------0h2-
D--2m-2m-2m-2m-2m-------------------x-7-7--|-2---2--2\--0h2-


Bass Verse       three times then
G---------------------|-------------------------------------
D---------------------|-------------------------------------
A--5/7--7-7-7-7-7-7---|--5--5-------------------------------
D---------------------|-------7--7--------------------------
("Baby wants the rights...")


Verse 1
e-----------------------------------------------------------
B-----------------------------------------------------------
G--x-7-7-----------------------x-7-7------------------------
D--x-7-7---x-7-7---0h2---------x-7-7---x-7-7---0h2----------
A--x-5-5---x-7-7---0h2---------x-5-5---x-7-7---0h2----------
D----------x-7-7---0h2-----------------x-7-7---0h2----------

Verse 2            three times then
e----------------------------|------------------------------
B----------------------------|------------------------------
G--7m/9m-9m-9m-9m-9m-9m-9m---|--x-7-7-----------------------
D--7m/9m-9m-9m-9m-9m-9m-9m---|--x-7-7---x-7-7---------------
A--5m/7m-7m-7m-7m-7m-7m-7m---|--x-5-5---x-7-7---------------
D----------------------------|----------x-7-7---------------


Chorus           three times then
e---------------------|-------------------------------------
B---------------------|-------------------------------------
G--7/9-9-9-9-9-9-9----|--x-7-7------------------------------
D--7/9-9-9-9-9-9-9----|--x-7-7---x-7-7----------------------
A--5/7-7-7-7-7-7-7----|--x-5-5---x-7-7----------------------
D---------------------|----------x-7-7----------------------
("Outside in society...")


Bridge 1
e--------|--------------------------------------------------
B--------|--------------------------------------------------
G--------|--------------------------------------------------
D--2--\--|--0m-2m-2m----0m-2m-2m----0m-2m-2m----0m-2m-2m----
A--2--\--|--0m-2m-2m----0m-2m-2m----0m-2m-2m----0m-2m-2m----
D--2--\--|--0m-2m-2m----0m-2m-2m----0m-2m-2m----0m-2m-2m----
("We will grow...")


Bridge 2
e-----------------------------------------------------------
B-----------------------------------------------------------
G------------7--------------------7-------------------------
D--2---------7---7------2---------7---7---------------------
A--2---------5---7------2---------5---7---------------------
D--2-------------7------2-------------7---------------------
("Now we love...")


Intro
Bass Verse
Bass Verse, Verse 1
Bass Verse, Verse 2

Chorus
Bass Verse, Verse 2

Chorus

Bridge 1

Bridge 2

Intro
Bass Verse, Verse 1

Chorus

This is a really awesome song. Period.

Almost there ...

Sign in to get your own page with links to favourite songs and more. You are just one click away...

Login with Facebook Login with Google