Log in

One click and you are in

Login with Facebook Login with Google

Why sign up and log in

Guitar Tabs Explorer
Marilyn Manson bass tabs for Rock is dead

Bass tabs

Track 4 from Mechanical Animals - Rock is Dead


Tuning - Drop D

                     Intro
G |-------------------------|-------------------------|-------------------------|----------------------|
D |-------------------------|-------------------------|-------------------------|----------------------| X2
A |-------------------------|-------------------------|-------------------------|---------9----7----4--|
D |-2--X--2--X--2--X--2--X--|-2--X--2--X--2--X--5--X--|-2--X--2--X--2--X--2--X--|--2--X----------------|

                 Verse
G |-------------------------|-------------------------|-------------------------|----------------------|
D |-------------------------|-------------------------|-------------------------|----------------------| X2
A |-------------------------|-------------------------|-------------------------|---------9----7----4--|
D |-2--X--2--X--2--X--2--X--|-2--X--2--X--2--X--5--X--|-2--X--2--X--2--X--2--X--|--2--X----------------|

    Prechorus
G |-------------------|
D |-------------------| x2
A |-------------------|
D |--5------8---X-10--|

           Chorus
G |-------------------------|-------------------------|
D |-------------------------|-------------------------|
A |--9------X--7------9--7--|--9------X--7------9--7--|
D |-------------------------|-------------------------|

G |-------------------------|-------------------------|
D |-------------------------|-------------------------|
A |--7------X--5------7--5--|--7------X--5------7--5--|
D |-------------------------|-------------------------|

G |-------------------------|-------------------------|
D |-------------------------|-------------------------|
A |--5------X--4------5--4--|--5------X--4------5--4--|
D |-------------------------|-------------------------|

G |--------------------|--------------------|
D |--------------------|--------------------|
A |--4--4--4--4--4--4--|--7--7--7--7--7--7--|
D |--------------------|--------------------|

Rest for a moment

Repeat Intro

Rest for a moment

Repeat Verse
Repeat Prechorus
Repeat Chorus

Rest for a moment

Repeat Intro - X3
Repeat Prechorus - X2
Repeat Chorus - X2

Almost there ...

Sign in to get your own page with links to favourite songs and more. You are just one click away...

Login with Facebook Login with Google