Log in

One click and you are in

Login with Facebook Login with Google

Why sign up and log in

Guitar Tabs Explorer
Marilyn Manson tabs for Putting holes in happiness

Intro

Album:Eat Me,Drink Me



1--------------------------------------------
2--------------------------------------------
3---------------------------------5----------
4------0-0-2-2---2-2----5---5-5---5----7-----
5--0-2-------2---2-2----5---5-5---3----7-----
6------------0---0-0----3---3-3--------5-----
repeat 3 times

1--------------------------------------------
2--------------------------------------------
3--------------------------------------------
4------0-0-2--5-5-5-5-5-5-5-5--4-4-4-4-4-----
5--0-2--------3-3-3-3-3-3-3-3--2-2-2-2-2-----
6--------------------------------------------


1--------------------------------------------
2--8-7-8-7-8---7-8-7-8/10---8-7-5-8----------
3--------------------------------------------
4--------------------------------------------
5--------------------------------------------
6--------------------------------------------
repeat this through the whole song.

Other versions of Putting Holes In Happiness

Putting Holes in HappinessChords

Almost there ...

Sign in to get your own page with links to favourite songs and more. You are just one click away...

Login with Facebook Login with Google