Log in

One click and you are in

Login with Facebook Login with Google

Why sign up and log in

Guitar Tabs Explorer
Marilyn Manson bass tabs for Putting holes in happiness

Bass tabs

  • Tuning: Drop D
  • Difficulty: Beginner
Track 2 from Eat Me, Drink Me - Putting Holes in Happiness


Tuning - Drop D

         Intro
G |--------------------------------------|
D |--------------------------------------| X3
A |----------------3--3/5--7-------------|
D |--2--2--2/5--5------------9---9--5/1--|

G |------------------------------------------------------|
D |------------------------------------------------------|
A |------------------------------------------------------|
D |--10--10--10--10--10--10--10--10--12--12--12--12--12--|
    Verse
G |---------------|
D |---------------| X4
A |---------------|
D |--2--2--\7--0--|


          Pre Chorus
G |---------------------------------------------|
D |---------------------------------------------|
A |---------------------------------------------|
D |--10--10--10--10--10--10--10--9--9--9--9--8--|


        Chorus
G |--------------------------------------|
D |--------------------------------------| X3
A |----------------3--3/5--7-------------|
D |--2--2--2/5--5------------9---9--5/1--|

G |------------------------------------------------------|
D |------------------------------------------------------|
A |------------------------------------------------------|
D |--10--10--10--10--10--10--10--10--12--12--12--12--12--|

    Verse II
G |---------------|
D |---------------| X4
A |---------------|
D |--2--2--\7--0--|


          Pre Chorus
G |---------------------------------------------|
D |---------------------------------------------|
A |---------------------------------------------|
D |--10--10--10--10--10--10--10--9--9--9--9--8--|


          Chorus II
G |--------------------------------------|
D |--------------------------------------| X3
A |----------------3--3/5--7-------------|
D |--2--2--2/5--5------------9---9--5/1--|

G |------------------------------------------------------|
D |------------------------------------------------------|
A |------------------------------------------------------|
D |--10--10--10--10--10--10--10--10--12--12--12--12--12--|
1
               Solo - X4  *Palm Muted*
G |-------------------|-------------------|-------------------|-------------------|
D |-------------------|-------------------|-------------------|-------------------|
A |-------------------|-------------------|-------------------|-------------------|
D |--2-2-2-2-2-2-2-2--|--2-2-2-2-2-2-2-2--|--2-2-2-2-2-2-2-2--|--2-2-2-2-2-2-2-2--|

G |-------------------|--------------------|----------------------------|
D |-------------------|--------------------|----------------------------|
A |-------------------|--------------------|----------------------------|
D |--2-2-2-2-2-2-2-2--|--2-2-2-2-2-2-2-2--|--10-10-10-10-10-10-10-10-0-|

*Drums and Bass*


        Pre Chorus
G |--------------------------------------|
D |--------------------------------------| X3
A |----------------3--3/5--7-------------|
D |--2--2--25--5-------------9---9--5/1--|

G |------------------------------------------------------|
D |------------------------------------------------------|
A |------------------------------------------------------|
D |--10--10--10--10--10--10--10--10--12--12--12--12--12--|


       Final Chorus
G |--------------------------------------|
D |--------------------------------------| X3
A |----------------3--3/5--7-------------|
D |--2--2--2/5--5------------9---9--5/1--|

             Outro
G |------------------------------------------------------|
D |------------------------------------------------------|
A |------------------------------------------------------|
D |--10--10--10--10--10--10--10--10--12--12--12--12--12--|

Putting Holes In Happiness bass tab

Marilyn Manson bass tabs for Putting holes in happiness Play the Pre-Chorus and Chorus with a pick and the rest of the part with fingers or thumb to round out the tone.

Almost there ...

Sign in to get your own page with links to favourite songs and more. You are just one click away...

Login with Facebook Login with Google