Log in

One click and you are in

Login with Facebook Login with Google

Why sign up and log in

Guitar Tabs Explorer
Marilyn Manson tabs for Posthuman

Guitar tabs

Album: Mechanical Animals
As tabbed by Joe Muggah


Verse A chord diagramA augmentedA (Guitar 1)
e-------------------------------------------------------
B-------------------------------------------------------
G-------------------------------------------------------
D--------------------0-0-0------------------------------
A-0-2-2-2-2-3-2-0-2---------2-0-2-0---------------------
E-------------------------------------------------------
Verse A chord diagramBB (Guitar 2)
e--------------7-------------------------7--------------
B-------------------------------------------------------
G-------------------------------------------------------
D-9/10\9--9\7------x-x-x-x--9/10\9--9\7-----x-x-x-x-----
A------------------x-x-x-x------------------x-x-x-x-----
E------------------x-x-x-x------------------x-x-x-x-----


Chorus A chord diagramA augmentedA (Guitar 1)
e-------------------------------------------------------
B-------------------------------------------------------
G-7----5----4-4--4-4-4--4-4--4-4-4----------------------
D-7----5----4-4--3-3-3--4-4--3-3-3----------------------
A-5----3----2-2---------2-2-----------------------------
E-------------------------------------------------------
("Show me the dead stars...")


Chorus A chord diagramBB (Guitar 2)
e-------------------------------------------------------
B-------------------------------------------------------
G-----------------4--4-4--4-4-4--4-4--4-4-4-------------
D------2/4--2-2h4----4-4--3-3-3--4-4--3-3-3-------------
A-0h2----------------2-2---------2-2--------------------
E-------------------------------------------------------

Bridge (the hammer-on/off is played fast)
e-14----------------------------------------------------
B-----12--12h14p12h15p12-(x4)---------------------------
G-------------------------------------------------------
D-------------------------------------------------------
A-------------------------------------------------------
E-------------------------------------------------------
("God is a number...")


Verse A chord diagramA augmentedA

Verse A, A chord diagramBB

Verse A chord diagramA augmentedA (bass), A chord diagramBB

Chorus A, A chord diagramBB
Rest

Verse A chord diagramA augmentedA

Verse A chord diagramA augmentedA (bass), A chord diagramBB

Chorus A, A chord diagramBB

Bridge
Rest

Bridge (gradually louder)

Chorus A, A chord diagramBB

Verse A chord diagramA augmentedA

This song uses some really wierd effects.

Almost there ...

Sign in to get your own page with links to favourite songs and more. You are just one click away...

Login with Facebook Login with Google