Log in

One click and you are in

Login with Facebook Login with Google

Why sign up and log in

Guitar Tabs Explorer
Marilyn Manson tabs for Para noir

Guitar tabs

Album: The Golden Age of Grotesque (2003)
As tabbed by Joe Muggah

` = pinch harmonic
<> = normal harmonic
. = play and bend, then mute

Verse                three times then:
e-------------------------|--------------------------------
B-------------------------|--------------------------------
G-------------------------|--------------------------------
D--------------------5^---|------5----5----5---------------
A------7----7----7--------|--------------------7-----------
E--0-0----0----0---0------|--0-0----0----0---0-------------


Pre-Chorus (palm muted)
e----------------------------------------------------------
B----------------------------------------------------------
G----------------------------------------------------------
D--2-2--------2-2--------2-2--------2-2--------------------
A--2-2--------2-2--------2-2--------2-2--------------------
E--0-0--------0-0--------0-0--------0-0--------------------


Riff
e--10---8----------------10---8----------------------------
B------------10---12---------------10---12-----------------
G----------------------------------------------------------
D----------------------------------------------------------
A----------------------------------------------------------
E----------------------------------------------------------


Chorus
e----------------------------------------------------------
B----------------------------------------------------------
G-------7/9--9-9-9-9--7-7--------7/9--9-9-9-9--10-10-------
D--2-2--7/9--9-9-9-9--7-7---2-2--7/9--9-9-9-9--10-10-------
A--2-2--5/7--7-7-7-7--5-5---2-2--5/7--7-7-7-7---8--8-------
E--0-0----------------------0-0----------------------------

(continued; end on:)
e----------------------------------------------------------
B----------------------------------------------------------
G-------7/9--9-9-9-9--7-7---10-----------------------------
D--2-2--7/9--9-9-9-9--7-7---10-----------------------------
A--2-2--5/7--7-7-7-7--5-5----8-----------------------------
E--0-0-----------------------------------------------------


Bridge (with delay/echo)
e------------19----------------19--------------------------
B--21---20-----------21---20-------------------------------
G----------------------------------------------------------
D----------------------------------------------------------
A----------------------------------------------------------
E----------------------------------------------------------


Solo
e----------------------4-----------------------------------
B----------------------------------------------------------
G------------------------------------------------------x---
D-------------------------------------------------5----x---
A------------------<5>--------------------<5>--------------
E--0----/-5^--\-x------------/-5---\--x--------------------

(continued)
e--7-/12------------------------12\10----------10/-16-16---
B--------------------------------------12------------------
G----------------------------------------------------------
D----------------------------------------------------------
A-----------14.-14.-14.-14.-14-----------------------------
E----------------------------------------------------------

(continued)
e--16-16-16--\------------/-20^-20^-20^-20^-20^-20^--20----
B----------------------------------------------------------
G----------------------------------------------------------
D---------------------x------------------------------------
A----------------8----x------------------------------------
E----------------------------------------------------------

(continued)
e-----------------------------12^--12.-12.-12--------------
B--0.------------------------------------------------------
G------9---9---9`---9--------------------------------------
D-----------------------x-/--------------------x-/---------
A-----------------------x-/--------------------x-/---------
E----------------------------------------------------------

(continued)
e----------------------------------------------------------
B--13^--13^-13^-13^-13^-13^--13p11p9-----------------------
G--------------------------------------x---9^p7--9^--9^p7--
D--------------------------------------x-------------------
A----------------------------------------------------------
E----------------------------------------------------------

(continued)
e--12/14`-------12/15`---14p12p10-----12^`-----------------
B----------------------------------------------------------
G----------------------------------------------------------
D----------10----------------------x--------x--------------
A----------------------------------x--------x--------------
E----------------------------------------------/-5--5--5---


Verse

Pre-Chorus, Riff

Chorus

Verse

Pre-Chorus, Riff

Chorus

Bridge

Solo

Chorus

Verse

Almost there ...

Sign in to get your own page with links to favourite songs and more. You are just one click away...

Login with Facebook Login with Google