Log in

One click and you are in

Login with Facebook Login with Google

Why sign up and log in

Guitar Tabs Explorer
Marilyn Manson bass tabs for Para-noir

Bass tabs

Main riff
G|----------------------|-----------------------|
D|----------------------|-----------------------|
A|---------7-------7----|-------7-------10------|
E|--0--0-------0--------|---0-------0-----------|

G|----------------------|-----------------------|
D|----------------------|-----------------------|
A|---------7-------7----|-------7-------10------|
E|--0--0-------0--------|---0-------0-----------|

G|----------------------|-----------------------|
D|----------------------|-----------------------|
A|---------7-------7----|-------7-------10------|
E|--0--0-------0--------|---0-------0-----------|

G|----------------------|-----------------------|
D|----------------------|-----------------------|
A|---------10------10---|-------10------7-------|
E|--0--0-------0--------|---0-------0-----------|


Pre-Chorus
G|----------------------------|
D|----------------------------|
A|--------------8--8--8--8----|
E|--0--0--0--0----------------|
(play it 8 times - I think)


Chorus
G|-------------------------|--------------------------|
D|-------------------------|--------------------------|
A|-------5h7--7---5--5--5--|--------5h7--7--8--8--8---|
E|-0--0--------------------|--0--0--------------------|

G|-------------------------|--------------------------|
D|-------------------------|--------------------------|
A|-------5h7--7---5--5--5--|--------5h7--7--8--8--8---|
E|-0--0--------------------|--0--0--------------------|

G|-------------------------|--------------------------|
D|-------------------------|--------------------------|
A|-------5h7--7---5--5--5--|--------5h7--7--8--8--8---|
E|-0--0--------------------|--0--0--------------------|

G|-------------------------|--------------------------|
D|-------------------------|--------------------------|
A|-------5h7--7---5--5--5--|--8--8--8--8--8--8--8--8--|
E|-0--0--------------------|--------------------------|


************************************

| h Hammer-on

************************************

Almost there ...

Sign in to get your own page with links to favourite songs and more. You are just one click away...

Login with Facebook Login with Google