Log in

One click and you are in

Login with Facebook Login with Google

Why sign up and log in

Guitar Tabs Explorer
Marilyn Manson tabs for Organ grinder

Guitar tabs

Album: Portrait of an American Family
As tabbed by Joe Muggah

<> = harmonics
Intro (Synthasizer arranged for guitar)
e--8---8---7---6---6---7----8---8---7---6---6---7--------
B--7---7---7---7---7---7----7---7---7---7---7---7--------
G--8---8---7---7---7---7----8---8---7---7---7---7--------
D--------------------------------------------------------
A--------------------------------------------------------
E--------------------------------------------------------


Riff 1A (Guitar 1)
e--------------------------------------------------------
B--------------------------------------------------------
G-----------------------------------------------<5>------
D--2-2-2-0h2--2---2---2-2-2-0h2--2--<5>-<5>-<5>----------
A--2-2-2-0h2--2-2-2---2-2-2-0h2--2-----------------------
E--0-0-0-0----0-3-0---0-0-0-0----0-----------------------


Riff 1B (Synthasizer arranged for guitar 2)
e--12--------16--------12--------16----------------------
B------14--------17--------14--------17------------------
G--------------------------------------------------------
D--------------------------------------------------------
A--------------------------------------------------------
E--------------------------------------------------------


Riff 2
e--------------------------------------------------------
B--------------------------------------------------------
G--9---7/9--9---12\9--9----------------------------------
D--9---7/9--9---12\9--9---5m-5m-5m-5m--8m-8m-8m-8m-------
A--7---5/7--7---10\7--7---5m-5m-5m-5m--8m-8m-8m-8m-------
E-------------------------3m-3m-3m-3m--6m-6m-6m-6m-------

Verse
e--------------------------------------------------------
B--------------------------------------------------------
G--9--9--9--9--9--9\-------------------------------------
D--9--9--9--9--9--9\--5m-5m-5m-5m--8m-8m-8m-8m-----------
A--7--7--7--7--7--7\--5m-5m-5m-5m--8m-8m-8m-8m-----------
E---------------------3m-3m-3m-3m--6m-6m-6m-6m-----------
("What I want...")


Chorus
e--------------------------------------------------------
B-----------------------------------------------9-9-9-9--
G--7-7-7-7-----------7-7-7-7-----------7-7-7-7--8-8-8-8--
D--7-7-7-7--6-6-6-6--7-7-7-7--7-6-7-6--7-7-7-7--6-6-6-6--
A--5-5-5-5--6-6-6-6--5-5-5-5--7-6-7-6--5-5-5-5-----------
E-----------4-4-4-4-----------5-4-5-4--------------------
("Here is my...")

(continued)
e--------------------------------------------------------
B--------------------|_________played twice___________|--
G--7-7-7-7------------7----------------7-----------------
D--7-7-7-7--7-6-7-6---7-(x8)--5-6-5-6--7-(x8)--7-6-7-6---
A--5-5-5-5--7-6-7-6---5-------5-6-5-6--5-------7-6-7-6---
E-----------5-4-5-4-----------3-4-3-4----------5-4-5-4---


Solo
e-----------------------------6h7p6h7p6h7----------------
B--8^--6------8^--6------8^-----------------6------------
G--------7----------7-------------------------7----------
D----------8----------8-------------------------8--------
A--------------------------------------------------------
E--------------------------------------------------------

(continued)
e-----------------------------6h7p6h7p6h7----------------
B--8^--6------8^--6------8^------------------------------
G--------7----------7------------------------------------
D----------8----------8----------------------------------
A--------------------------------------------------------
E--------------------------------------------------------


Riff 3
e--0---3---5^----0---3---5^----0---3---5^----0---3---5^--
B--------------------------------------------------------
G--------------------------------------------------------
D--------------------------------------------------------
A--------------------------------------------------------
E--------------------------------------------------------


Intro

Riff 1A, 1B

Riff 2

Riff 2 (with wah wah)

Verse

Riff 1A, 1B

Verse

Riff 1A, 1B

Chorus

Solo

Verse

Chorus

Solo

Riff 3, Intro

Chorus

Almost there ...

Sign in to get your own page with links to favourite songs and more. You are just one click away...

Login with Facebook Login with Google