Log in

One click and you are in

Login with Facebook Login with Google

Why sign up and log in

Guitar Tabs Explorer
Marilyn Manson bass tabs for Organ grinder

Bass tabs

Song anme: Organ grinder
Album: Portrait of an American family
As tabbed by: Andrej "Oskar" Paulus


Intro of this song is very hard to hear. First part is played slow, and second
is played fast.
I gave all best of me.
Intro:
G--------------------------------------------------------
D--------------------------------------------------------
A--7--5-----5------7-5---5-7-5---5-----------------------
E--------7-------------7-------7-------------------------

Interlude:
G----------------------------------------------------------------
D----------------------------------------------------------------
A--7-5-7-10-7--------------------7-5-7-10-7----------------------
E--------------3-3-3-3-6-6-6-6--------------3-3-3-3-6-6-6-6------


Verse:
G--------------------------------------------------------
D--------------------------------------------------------
A--7-7-7-7-7--------------------7-7-7-7-7-----------------
E-------------3-3-3-3-6-6-6-6--------------3-3-3-3-6-6-6-6-
(I am the face...)


Chorus:
G---------------------------------------------------------------------
D--------------------------------------------6-6-6-6------------------
A--5-5-5-5---------5-5-5-5-----------5-5-5-5---------5-5-5-5----------
E----------4-4-4-4----------5-4-5-4--------------------------5-4-5-4--
(Here is my real head...)

(continued)
G--------------------------------------------------------
D--------------------------------------------------------
A-5(x8)---------5(x8)----------5(x8)---------5(x8)----------
E-------3-4-3-4-------5-4-5-4--------3-4-3-4-------5-4-5-4--
(I wear this...)


Intro
Interlude

Verse

Intro

Verse

Intro

Chorus

Verse

Chorus

Verse

Chorus

Questins, coments please let me know: andrej_paulus@net.hr
Andrej

Almost there ...

Sign in to get your own page with links to favourite songs and more. You are just one click away...

Login with Facebook Login with Google