Log in

One click and you are in

Login with Facebook Login with Google

Why sign up and log in

Guitar Tabs Explorer
Marilyn Manson bass tabs for Nobodies

Bass tabs

Tuning: Standard (E A D G)

Difficulty: Novice


Standard Tuning

Today I'm dirty...
G|----------|-----------|-----------|-----------|
D|----------|-----------|-----------|-----------|
A|----------|-----------|-----------|-----------| 2x
E|-5-5--5-5-|-8-8--8-8--|--0-0--0-0-|-5-5--3-3--|

We are the nobodies...
G|---------|---------|---------|---------|---------|---------|---------|---------|
D|---------|---------|---------|---------|---------|---------|---------|---------|
A|---------|---------|---------|---------|---------|---------|---------|---------| 2x
E|-5-5-5-5-|-5-5-5-5-|-8-8-8-8-|-8-8-8-8-|-0-0-0-0-|-0-0-0-0-|-5-5-5-5-|-3-3-3-3-|

G|----------|
D|----------|
A|----------|
E|-5-5--5-5-|

Yesterday I was dirty...
G|----------|-----------|-----------|-----------|
D|----------|-----------|-----------|-----------|
A|----------|-----------|-----------|-----------| 2x
E|-5-5--5-5-|-8-8--8-8--|--0-0--0-0-|-5-5--3-3--|

We are the nobodies...
G|---------|---------|---------|---------|---------|---------|---------|---------|
D|---------|---------|---------|---------|---------|---------|---------|---------|
A|---------|---------|---------|---------|---------|---------|---------|---------| 2x
E|-5-5-5-5-|-5-5-5-5-|-8-8-8-8-|-8-8-8-8-|-0-0-0-0-|-0-0-0-0-|-5-5-5-5-|-3-3-3-3-|

Some children died the other day....
G|---------|---------|---------|---------|
D|---------|---------|---------|---------|
A|---------|---------|---------|---------| 4x
E|-5-5-5-5-|-5-5-5-5-|-1-1-1-1-|-1-1-1-1-|

(Slide to 7th fret ad let's ring the notes)
G|---------|---------|---------|---------|
D|-------- |---------|---------|---------|
A|-7-------|-5-------|-3-------|-2-------|
E|---------|---------|---------|---------|

G|----------|-----------|-----------|-----------|
D|----------|-----------|-----------|-----------|
A|----------|-----------|-----------|-----------|
E|-5-5--5-5-|-8-8--8-8--|--0-0--0-0-|-5-5--3-3--|

We are the nobodies...
G|----------|-----------|-----------|-----------|----------|-----------|
D|----------|-----------|-----------|-----------|----------|-----------|
A|----------|-----------|-----------|-----------|----------|-----------|
E|-5-5--5-5-|-8-8--8-8--|--0-0--0-0-|-5-5--3-3--|-5-5--5-5-|-8-8--8-8--|

When we're dead
G|---------|---------|---------|---------|
D|---------|---------|---------|---------|
A|---------|---------|---------|---------|
E|-0-0-0-0-|-0-0-0-0-|-5-5-5-5-|-3-3-3-3-|

We are the nobodies....
G|---------|---------|---------|---------|---------|---------|---------|---------|
D|---------|---------|---------|---------|---------|---------|---------|---------|
A|---------|---------|---------|---------|---------|---------|---------|---------|
E|-5-5-5-5-|-5-5-5-5-|-8-8-8-8-|-8-8-8-8-|-0-0-0-0-|-0-0-0-0-|-5-5-5-5-|-3-3-3-3-|

G|----------|-----------|
D|----------|-----------|
A|----------|-----------|
E|-5-5--5-5-|-5-5--5-5--|

Almost there ...

Sign in to get your own page with links to favourite songs and more. You are just one click away...

Login with Facebook Login with Google