Log in

One click and you are in

Login with Facebook Login with Google

Why sign up and log in

Guitar Tabs Explorer
Marilyn Manson tabs for New model no 015

Guitar tabs

This is a more accurate (and less confusing!) tab of this song than
currently in the archive.


Album: Mechanical Animals
As tabbed by Joe Muggah
Intro
e-------------------------------------------------------
B-------------------------------------------------------
G-------------------------------------------------------
D-------------------------------------------------------
A-7-7-7-7-7-7-7-7-7-7-7---------------------------------
E-------------------------------------------------------


Chorus
e---2-------------2-------------2-----------------------
B-------------------------------------------------------
G-----------------------------------------------2-2-2-4-
D-4---4-4---4-2-2---4-4---4-2-2---4-4--4-2-2--4-2-2-2-4-
A-4---4-4---4-2-2---4-4---4-2-2---4-4--4-2-2--4-0-0-0-2-
E-2---2-2---2-0-0---2-2---2-0-0---2-2--2-0-0--2---------


Verse A chord diagramA augmentedA (Guitar 1)
e-------------------------------------------------------
B-------------------------------------------------------
G---11----------------11----------------11--------------
D-------------------------------------------------------
A-9----9-9--9-7^--7/9----9-9--9-7^--7/9----9-9----------
E-------------------------------------------------------

(continued)
e-------------------------------------------------------
B-------------------------------------------------------
G------------11-----------------------------------------
D-------------------------------------------------------
A--9-7^--7/9----9-12-12-12-9---12\7-(x7)----------------
E-------------------------------------------------------

Pre-Chorus A chord diagramA augmentedA (Guitar 1), A chord diagramBB (Guitar 2)
e--------------------|----------------------------------
B--------------------|----------------------------------
G------7-------------|---------9------------------------
D-9----7----9----7---|-10--11------9--7-----------------
A-9----5----9----7---|----------------------------------
E-7---------7----5---|----------------------------------


Verse A chord diagramBB (Guitar 2)
e----------------------10-----------------------10------
B-7h10p8p7----7h10p8p7------7h10p8p7---7h10p8p7---------
G-------------------------------------------------------
D-------------------------------------------------------
A-------------------------------------------------------
E-------------------------------------------------------


Bridge A chord diagramA augmentedA (Guitar 1)
e-------------------------------------------------------
B-------------------------------------------------------
G-4-4-4-4---4-4-2-2-2-2---2-2-4-4-4-4---4-4-------------
D-4-4-4-4---4-4-2-2-2-2---2-2-4-4-4-4---4-4-5-5-5-5-----
A-2-2-2-2---2-2-0-0-0-0---0-0-2-2-2-2---2-2-5-5-5-5-----
E-------------------------------------------3-3-3-3-----

(continued)
e-------------------------------------------------------
B-------------------------------------------------------
G-------2-2-2-2---2-2-----------------------------------
D-5-5---2-2-2-2---2-2-----------------------------------
A-5-5---0-0-0-0---0-0-----------------------------------
E-3-3---------------------------------------------------


Bridge A chord diagramBB (Guitar 2)
e-------------------------------------------------------
B---11-------------------------------12^----10^---------
G------10---------------------10^----------------9^-/14^
D-9-------11-12^-9-9---9h11p9------9------9-----------*-
A-------------------------------------------------------
E-------------------------------------------------------
* this note played 4 times


Break
e----------------------------10-----------------------10
B-10h12--10-----10h12--10--------10h12--10----10h12-----
G-----------11------------11---------------11-------11--
D-------------------------------------------------------
A-------------------------------------------------------
E-------------------------------------------------------

(continued)
e-------------------------------------------------------
B-------------------------------------------------------
G-------------------------------------------------------
D-4-4-4-4-4-4-4-4---------------------------------------
A-4-4-4-4-4-4-4-4---------------------------------------
E-2-2-2-2-2-2-2-2---------------------------------------


Outro
e-------------------------------------------------------
B-----------17\15---------------*17--------*17----------
G----------------------------------*15--------*15-------
D----16\14--------------16\14---------*14--------*14----
A-------------------------------------------------------
E-14----------------14----------------------------------
* each note is picked a lot of times


Intro

Chorus

Verse A chord diagramA augmentedA

Pre-Chorus A, A chord diagramBB

Chorus

Intro

Verse A, A chord diagramBB

Pre-Chorus, A, A chord diagramBB

Bridge A, A chord diagramBB

Pre-Chorus A, A chord diagramBB

Break

Pre-Chorus A, A chord diagramBB

Chorus, Outro

Intro

Almost there ...

Sign in to get your own page with links to favourite songs and more. You are just one click away...

Login with Facebook Login with Google