Log in

One click and you are in

Login with Facebook Login with Google

Why sign up and log in

Guitar Tabs Explorer
Marilyn Manson tabs for Negative 3

Guitar tabs

Album: After School Special
As tabbed by Joe Muggah

Tuned down 1 step, but tuning is off and the guitar is a
bit higher than it should be.
Verse
d------------------------------------------------------------
A------------------------------------------------------------
F------------------------------------------------------------
C----2---2----2----2---2----2----2---2----2-0----0---0---0---
G----------------3---3----3----2---2----2------2---2---2-----
D--0---0----0------------------------------------------------

(continued)
d------------------------------------------------------------
A------------------------------------------------------------
F------------------------------------------------0---0---0-0-
C----2---2---2-2---2---2----2----2---2----2-0----------------
G----------------3---3----3----2---2----2------2---2---2-----
D--0---0---0-------------------------------------------------


Pre-Chorus
d------------------------------------------------------------
A------------------------------------------------------------
F--9-9--9---x-x-x--9-9--9---x-x-x--9-9----x-x----------------
C--9-9--9---x-x-x--9-9--9---x-x-x--9-9----x-x--9-------------
G--7-7--7---x-x-x--7-7--7---x-x-x--7-7----x-x--9-------------
D------------------8-8--8----------7-7---------7--8-7--------

(continued)
d------------------------------------------------------------
A------------------------------------------------------------
F--9-9--9---x-x-x--9-9--9---x-x-x--9-9----x-x----------------
C--9-9--9---x-x-x--9-9--9---x-x-x--9-9----x-x--9-------------
G--7-7--7---x-x-x--7-7--7---x-x-x--7-7----x-x--9-------------
D------------------8-8--8----------7-7---------7-------------

Riff 1
d------------------------------------------------------------
A------------------------------------------------------------
F---------------------------------------9--------------------
C---------------------------------------9--------------------
G--7---/10------------9---10---9--------7--------------------
D------------8---10----------------10------------------------


Chorus                                              end on
d------------------------------------------------|-----------
A------------------------------------------------|-----------
F--9-9-9-9-9--9-9-9-9-9--------------------------|---9-------
C--9-9-9-9-9--9-9-9-9-9--9-9-9-9-9--5--5--5--5---|---9-------
G--7-7-7-7-7--7-7-7-7-7--9-9-9-9-9--5--5--5--5---|---7-------
D-------------8-8-8-8-8--7-7-7-7-7--3--3--3--3---|-----------


Riff 2
d------------------------------------------------------------
A------------------------------------------------------------
F--9---12-------------11---12---11---14---9------------------
C--x----x---10---12----x----x----x----x---9------------------
G--7---10----x----x----9---10----9---12---7------------------
D------------8---10------------------------------------------


Bridge                                       end on
d--------3-2-3-2-0-----------3-2-3-2-0--------|--------------
A---------------------------------------------|--------------
F------0------------------0-------------------|--------------
C----2------------------2---------------------|-10--10-10-10-
G--3------------------3-----------------------|-10--10-10-10-
D---------------------------------------------|--8---8--8--8-


Verse

Verse, Pre-Chorus

Verse

Verse, Riff 2

Verse

Verse, Pre-Chorus

Verse, Chorus

Verse

Verse, Riff 2

Verse

Verse, Pre-Chorus

Verse, Chorus

Bridge

Verse, Chorus

Almost there ...

Sign in to get your own page with links to favourite songs and more. You are just one click away...

Login with Facebook Login with Google