Log in

One click and you are in

Login with Facebook Login with Google

Why sign up and log in

Guitar Tabs Explorer
Marilyn Manson tabs for My monkey

Guitar tabs

Album: Portrait of an American Family
As tabbed by Joe Muggah


Intro 1 (pop goes the weasel)
e----------------14-17-14------------------------14-------
B--15-15--17-17-----------15-15--12-15-15-17-17------15---
G---------------------------------------------------------
D---------------------------------------------------------
A---------------------------------------------------------
E---------------------------------------------------------

(continued)
e----------------14-17-14--------19----15-14--------------
B--15-15--17-17-----------15-15-----17-------15-----------
G---------------------------------------------------------
D---------------------------------------------------------
A---------------------------------------------------------
E---------------------------------------------------------


Intro 2 (guitar 1 , last half in wah wah)
e---9\-----------9--9--9--9\------9----9----9----9--------
B--10\----10^---10-10-10-10\-----10---10---10---10--------
G---9\-----9^----9--9--9--9\------9----9----9----9--------
D---------------------------------------------------------
A---------------------------------------------------------
E---------------------------------------------------------


Riff 1 (Synthasizer for guitar)
e---------9-----10-10-10-11------9--------9--9\-----------
B--8--10----10--------------10-----10------------10-----8-
G--------------------------------------9-------------9----
D---------------------------------------------------------
A---------------------------------------------------------
E---------------------------------------------------------

(continued)                     end on (1st)   (2nd)
e--9--10-10-10-11------9--------|------------|---9--9-----
B------------------10----10-10--|-----8--8---|------------
G-------------------------------|---9--------|------------
D-------------------------------|------------|------------
A-------------------------------|------------|------------
E-------------------------------|------------|------------

Verse
e-----------------8^------8-------------------------------
B-----------------8^--------------------------------------
G--12----12^------6^------------9^\----6^\----------------
D--------11^------7^--------------------------------------
A---------------------------------------------------------
E---------------------------------------------------------
("I had a little monkey...")


Chorus A chord diagramA augmentedA (Guitar 1)
e---------------------------------------------------------
B---------------------------------------------------------
G---------------------------------------------------------
D-----------------(all x 3 then:)-------------------------
A-----------------------------------------------0---------
E--2-2-2-0-2-2-2--------------------2-2-2-0-2-3-----------
("What I make is what I am...")

(continued)
e---------------------------------------------------------
B---------------------------------------------------------
G------------------(all x 3 then)-------------------------
D--4-4-4-2-4-4-4--------------------4-4-4-2-4-4-4\--------
A---------------------------------------------------------
E---------------------------------------------------------


Chorus A chord diagramBB (Guitar 2)
e-----9p7/5--7p5--5--5---5---5---------12----12-12--9\7---
B--7-------------------7-------7-5------------------------
G----------------------------------6------11--------------
D---------------------------------------------------------
A---------------------------------------------------------
E---------------------------------------------------------

(continued)
e-----9p7/5--7p5--5--5---5---5-----------------9--12--15\-
B--7-------------------7-------7-5--------10--------------
G----------------------------------6---11----11-11--11----
D---------------------------------------------------------
A---------------------------------------------------------
E---------------------------------------------------------


Bridge 1 (played 4 times palm muted, and 4 times not)
e---------------------------------------------------------
B---------------------------------------------------------
G---------------------------------------------------------
D---------------------------------------------------------
A--------------------------------------3^-----------------
E--5--5--0--3--5--5--3--5--5--0--3--5---------------------


Bridge 2
e---------------------------------------------------------
B---------------------------------------------------------
G--------------------------------8--8^----------12^-------
D------------6-------------5---8----8^----10----13^-------
A--5-5-5-5h7----5-5-5-5h7---------------------------------
E---------------------------------------------------------


Riff 2
e---------------------------------------------------------
B---------------------------------------------------------
G---------------------------------------------------------
D--7---7-7-7--6--5--5-5--6--7--6--5--6--7\----------------
A--x---x-x-x--x--x--x-x--x--x--x--x--x--x-----------------
E--5---5-5-5--4--3--3-3--4--5--4--3--4--5\----------------


Solo 1
e---------------------------------------12-12-12h15-15----
B--10--10--10-12-12-12p10--12-14-14-10--------------------
G---------------------------------------------------------
D---------------------------------------------------------
A---------------------------------------------------------
E---------------------------------------------------------

(continued)
e--12--12--10\9--9--9\7--7\5--5\2---4^--\-----------------
B---------------------------------------------------------
G---------------------------------------------------------
D---------------------------------------------------------
A---------------------------------------------------------
E---------------------------------------------------------


Solo 2
e---------------------------------------7--9--7--5--------
B-------------------------8p7---8-------------------------
G--------6---6---6\---6---8-------------------------------
D--5/7---7----------------7-------------------------------
A---------------------------------------------------------
E---------------------------------------------------------


Solo 3
e----------17------15----------12-------------------------
B-----------------------------------------14/16-14--------
G--10--14------14------14--14------14-14------------------
D---------------------------------------------------------
A---------------------------------------------------------
E---------------------------------------------------------

(continued)
e--12^------12^------12---15--17^-------------------------
B-------10-------10---------------------------------------
G---------------------------------------------------------
D---------------------------------------------------------
A---------------------------------------------------------
E---------------------------------------------------------


Outro
e---------------------------------------------------------
B---------------------------------------------------------
G--7\5---7\5--7p5h7p5h7p5h7p5---7\5---7p5h7p5h7p5h7p5-----
D---------------------------------------------------------
A---------------------------------------------------------
E---------------------------------------------------------


Intro 1

Intro 2, Riff 1

Verse

Chorus A, A chord diagramBB

Riff 1

Verse

Bridge 1

Chorus A, A chord diagramBB

Bridge 2

Riff 2, Solo 1

Riff, Solo 2

Solo 3

Riff, Outro

The guitar is VERY hard to hear in this song. I did the best
I could, trust me.

Almost there ...

Sign in to get your own page with links to favourite songs and more. You are just one click away...

Login with Facebook Login with Google