Log in

One click and you are in

Login with Facebook Login with Google

Why sign up and log in

Guitar Tabs Explorer
Marilyn Manson tabs for Misery machine

Guitar tabs

Album: Portrait of an American Family
As tabbed by Joe Muggah


Intro A chord diagramA augmentedA (Guitar 1)
e---------------------------------------------------------
B---------------------------------------------------------
G-----------5--3----------------------5-------7-----------
D--0--0--0-------6-(all x 3 then)---3---3---5---5---------
A---------------------------------------------------------
E---------------------------------------------------------
Intro A chord diagramBB (Guitar 2)
e---------------------------------------------------------
B---------------------------------------------------------
G-------7-7-7-7-7\5---------------------<7>-<7>-----------
D-------7-7-7-7-7\5--(all x3 then)------<7>-<7>--3-3--5-5-
A--0h3--5-5-5-5-5\3----------------0h3-----------3-3--5-5-
E------------------------------------------------1-1--3-3-


Intro A chord diagramC majorC (Guitar 1)
e---------------------------------------------------------
B---------------------------------------------------------
G--7---13-13--12-12--10--7---10-10--12-12--13-------------
D--x----x--x---x--x---x--x----x--x---x--x---x-------------
A--5---11-11--10-10---8--5----8--8--10-10--11-------------
E---------------------------------------------------------

(continued)
e---------------------------------------------------------
B----------------------------13-13-13---------------------
G--7---13-13--12-12--10--7----x--x--x---------------------
D--x----x--x---x--x---x--x---10-10-10---------------------
A--5---11-11--10-10---8--5--------------------------------
E---------------------------------------------------------

Verse A chord diagramA augmentedA (Guitar 1)
e---------------------------------------------------------
B----------------------------5------------------5-5-5-5---
G--7-7\--7-7\--7-7\--6-6-6-6---7-7\--7-7\--7-7\---------6-
D--7-7\--7-7\--7-7\------------7-7\--7-7\--7-7\-----------
A--5-5\--5-5\--5-5\------------5-5\--5-5\--5-5\-----------
E---------------------------------------------------------
("Man in the front...")


Verse A chord diagramBB (Guitar 2)
e---------------------------15-15-15-15-15-15-15-15-------
B--13-13-13-13-13-13-13-13---x--x--x--x--x--x--x--x-------
G---x--x--x--x--x--x--x--x--12-12-12-12-12-12-12-12-------
D--11-11-11-11-11-11-11-11--------------------------------
A---------------------------------------------------------
E---------------------------------------------------------


Riff 1
e---------------------------------------------------------
B---------------------------------------------------------
G---------------------------------------------------------
D--3\-----3\-----3\-----3\--------------------------------
A--3\-----3\-----3\-----3\--------------------------------
E--1\-----1\-----1\-----1\--------------------------------


Chorus
e---------------------------------------------------------
B-------------------------------------13-13-13------------
G--7--10--13-12-13-12---7--10--13-12--12-12-12---7--------
D--7--10--13-12-13-12---7--10--13-12--10-10-10---7--------
A--5---8--11-10-11-10---5---8--11-10-------------5--------
E---------------------------------------------------------
("When you hide you're...")


Riff 2                                        end on
e-------------------------------------------|-------------
B------------------------------------13\----|-------------
G--7\--10\--13\--12\---7\--10\--13\--12\----|--7----------
D--7\--10\--13\--12\---7\--10\--13\--10\----|--7----------
A--5\---8\--11\--10\---5\---8\--12\---------|--5----------
E-------------------------------------------|-------------
("I am fueled by...")


Solo
e--10-------10\8------------13-------11-------------------
B--10-(x6)--10\8--(all x3)--13-(x7)--13-(x7)----(all x 2)-
G---------------------------------------------------------
D---------------------------------------------------------
A---------------------------------------------------------
E---------------------------------------------------------

(continued)
e--16--------22--------16--------22-(x7)------------------
B--15-(x21)--21-(x7)---15-(x21)---------------------------
G---------------------------------------------------------
D---------------------------------------------------------
A---------------------------------------------------------
E---------------------------------------------------------


Intro A chord diagramA augmentedA

Intro A, A chord diagramBB

Intro B, A chord diagramC majorC

Verse A, Intro A chord diagramA augmentedA

Verse A, B, Intro A chord diagramA augmentedA

Intro A chord diagramBB

Verse A, B, Intro A chord diagramA augmentedA

Riff 1

Chorus

Riff 2

Intro A chord diagramA augmentedA

Intro A, A chord diagramBB

Intro A, B, Solo

Intro A, A chord diagramBB

Intro A, B, A chord diagramC majorC

Intro A, A chord diagramBB

Other versions of Misery Machine

Misery machineChords

Almost there ...

Sign in to get your own page with links to favourite songs and more. You are just one click away...

Login with Facebook Login with Google