Log in

One click and you are in

Login with Facebook Login with Google

Why sign up and log in

Guitar Tabs Explorer
Marilyn Manson bass tabs for Minute of decay

Bass tabs

(Bass Line Intro + Verse: | 0:00-1:30 |)

G|---------------------------------------------------------------------------|
D|---------------------------------------------------------------------------|
A|-0-003333232---------------------------------------------------------------|
D|-------------3-555---------------------------------------------------------| x16
  (There's not much left to love...)

(Bass Line Chorus: | 1:30-1:51 |)

G|---------------------------------------------------------------------------|
D|---------------------------------------------------------------------------|
A|---------------------------------------------------------------------------|
D|-5555555/7~----------------------------------------------------------------| x3
      (The minute that it's born...)
G|---------------------------------------------------------------------------|
D|---------------------------------------------------------------------------|
A|---------------------------------------------------------------------------|
D|-5555555/3~----------------------------------------------------------------| x1
      (I'd love to live this lie...)

(Bass Line Verse: | 1:51-2:34 |)

G|---------------------------------------------------------------------------|
D|---------------------------------------------------------------------------|
A|-0-003333232---------------------------------------------------------------|
D|-------------3-555---------------------------------------------------------| x8
  (I've been to black and back...)

(Bass Line Chorus: | 2:34-2:56
G|---------------------------------------------------------------------------|
D|---------------------------------------------------------------------------|
A|---------------------------------------------------------------------------|
D|-5555555/7~----------------------------------------------------------------| x3
      (The minute that it's born...)
G|---------------------------------------------------------------------------|
D|---------------------------------------------------------------------------|
A|---------------------------------------------------------------------------|
D|-5555555/3~----------------------------------------------------------------| x1
      (I'd love to live this lie...)

(Bass Line Bridge: | 2:56-3:38 |)

G|---------------------------------------------------------------------------|
D|---------------------------------------------------------------------------|
A|---------------------------------------------------------------------------|
D|-3-2~--------2-3~--------3-2~--------2-3~----------------------------------|x4
 (...lie)

(Bass Line Chorus: | 3:38-4:00 |)

G|---------------------------------------------------------------------------|
D|---------------------------------------------------------------------------|
A|---------------------------------------------------------------------------|
D|-5555555/7~----------------------------------------------------------------| x3
      (The minute that it's born...)
G|---------------------------------------------------------------------------|
D|---------------------------------------------------------------------------|
A|---------------------------------------------------------------------------|
D|-5555555/3~----------------------------------------------------------------| x1
      (I'd love to live this lie...)

(Bass Line Outro: | 4:00-4:44 |)

G|---------------------------------------------------------------------------|
D|---------------------------------------------------------------------------|
A|-0-003333232---------------------------------------------------------------|
D|-------------3-555---------------------------------------------------------| x5
  (I'm on my way down now, I'd like to take you with me...)
G|---------------------------------------------------------------------------|
D|---------------------------------------------------------------------------|
A|-0-------------------------------------------------------------------------|
D|---------------------------------------------------------------------------| x1

Almost there ...

Sign in to get your own page with links to favourite songs and more. You are just one click away...

Login with Facebook Login with Google