Log in

One click and you are in

Login with Facebook Login with Google

Why sign up and log in

Guitar Tabs Explorer
Marilyn Manson bass tabs for Mechanical animals

Mechanical Animals bass tab by Marilyn Manson

Marilyn Manson bass tabs for Mechanical animals

Bass tabs

Track 3 from Mechanical Animals - Mechanical Animals


Tuning: Standard

        Intro
G |-----------------------------|
D |--0/2-2-2-2---2-2------------| X2
A |-------------------0---7/12--|
E |-----------------------------|

G |----------------------------|----------------------------|
D |----------------------------|----------------------------|
A |--3---3--3---3--3-----------|--5---5--5---5--5-----------|
E |-------------------0--7/12--|-------------------0--7/12--|

             Verse
G |--------------------------|----------------------|
D |--5--5--5--4---2----------|--5--5--5--4---2---0--|
A |-------------------2------|----------------------|
E |-----------------------0--|----------------------|

G |---------------------------|
D |-----------------0---------|
A |--3*------2----------------|
E |------------------------0--|

           Prechorus
G |--------------------------|----------------------|
D |--5--5--5--4---2----------|--5--5--5--4---2---0--|
A |-------------------2------|----------------------|
E |-----------------------0--|----------------------|

G |--------------------|
D |-----------------0--|
A |--3*------2---------|
E |--------------------|

                   Chorus
G |-------------------|-------------------|-----------------|-------------------|
D |--5-5-5-5-5-5-5-5--|--5-5-5-5-5-5-5-5--|-4-4-4-4-4-4-4-4-|--4-4-4-4-4-4-4-4--|
A |-------------------|-------------------|-----------------|-------------------|
E |-------------------|-------------------|-----------------|-------------------|

G |-------------------|-------------------|-------------------|-------------------|
D |-------------------|-------------------|-------------------|-------------------|
A |--3-3-3-3-3-3-3-3--|--3-3-3-3-3-3-3-3--|--3-3-3-3-3-3-3-3--|-------------------|
E |-------------------|-------------------|-------------------|--3-3-3-3-3-3-3-3--|

G |-------------------|-------------------|-----------------|-------------------|
D |--5-5-5-5-5-5-5-5--|--5-5-5-5-5-5-5-5--|-4-4-4-4-4-4-4-4-|--4-4-4-4-4-4-4-4--|
A |-------------------|-------------------|-----------------|-------------------|
E |-------------------|-------------------|-----------------|-------------------|

G |-------------------|-------------------|-------------------|-------------------|
D |-------------------|-------------------|-------------------|-------------------|
A |--3-3-3-3-3-3-3-3--|--3-3-3-3-3-3-3-3--|--2-2-2-2-2-2-2-2--|--2-2-2-2-2-2-2-2--|
E |-------------------|-------------------|-------------------|-------------------|

Rest after Manson finishes singing

           Verse II
G |--------------------------|----------------------|
D |--5--5--5--4---2----------|--5--5--5--4---2---0--|
A |-------------------2------|----------------------|
E |-----------------------0--|----------------------|

G |---------------------------|
D |-----------------0---------|
A |--3*------2----------------|
E |------------------------0--|

           Prechorus
G |--------------------------|----------------------|
D |--5--5--5--4---2----------|--5--5--5--4---2---0--|
A |-------------------2------|----------------------|
E |-----------------------0--|----------------------|

G |--------------------|
D |-----------------0--|
A |--3*------2---------|
E |--------------------|

                 Chorus II
G |-------------------|-------------------|-----------------|-------------------|
D |--5-5-5-5-5-5-5-5--|--5-5-5-5-5-5-5-5--|-4-4-4-4-4-4-4-4-|--4-4-4-4-4-4-4-4--|
A |-------------------|-------------------|-----------------|-------------------|
E |-------------------|-------------------|-----------------|-------------------|

G |-------------------|-------------------|-------------------|-------------------|
D |-------------------|-------------------|-------------------|-------------------|
A |--3-3-3-3-3-3-3-3--|--3-3-3-3-3-3-3-3--|--3-3-3-3-3-3-3-3--|--3-3-3-3-3-3-3-3--|
E |-------------------|-------------------|-------------------|-------------------|

G |-------------------|-------------------|-----------------|-------------------|
D |--5-5-5-5-5-5-5-5--|--5-5-5-5-5-5-5-5--|-4-4-4-4-4-4-4-4-|--4-4-4-4-4-4-4-4--|
A |-------------------|-------------------|-----------------|-------------------|
E |-------------------|-------------------|-----------------|-------------------|

G |-------------------|-------------------|-------------------|-------------------|
D |-------------------|-------------------|-------------------|-------------------|
A |--3-3-3-3-3-3-3-3--|--3-3-3-3-3-3-3-3--|--2-2-2-2-2-2-2-2--|--2-2-2-2-2-2-2-2--|
E |-------------------|-------------------|-------------------|-------------------|


                 Final Chorus
G |-------------------|-------------------|-----------------|-------------------|
D |--5-5-5-5-5-5-5-5--|--5-5-5-5-5-5-5-5--|-4-4-4-4-4-4-4-4-|--4-4-4-4-4-4-4-4--|
A |-------------------|-------------------|-----------------|-------------------|
E |-------------------|-------------------|-----------------|-------------------|

G |-------------------|-------------------|-------------------|-------------------|
D |-------------------|-------------------|-------------------|-------------------|
A |--3-3-3-3-3-3-3-3--|--3-3-3-3-3-3-3-3--|--3-3-3-3-3-3-3-3--|--3-3-3-3-3-3-3-3--|
E |-------------------|-------------------|-------------------|-------------------|

G |-------------------|-------------------|-----------------|-------------------|
D |--5-5-5-5-5-5-5-5--|--5-5-5-5-5-5-5-5--|-4-4-4-4-4-4-4-4-|--4-4-4-4-4-4-4-4--|
A |-------------------|-------------------|-----------------|-------------------|
E |-------------------|-------------------|-----------------|-------------------|

G |-------------------|-------------------|-------------------|-------------------|
D |-------------------|-------------------|-------------------|-------------------|
A |--3-3-3-3-3-3-3-3--|--3-3-3-3-3-3-3-3--|--2-2-2-2-2-2-2-2--|--2-2-2-2-2-2-2-2--|
E |-------------------|-------------------|-------------------|-------------------|

                     Outro
G |------0-0-0-0---------|------0-0-0-0---------|-------------------|-------------------|
D |---------------2-0-2--|---------------2-0-2--|-------------------|-------------------| X7
A |----------------------|----------------------|--4-4-4-4-4-4-4-4--|--3-3-3-3-3-3-3-3--|
E |--0-------------------|--0-------------------|--2-2-2-2-2-2-2-2--|--1-1-1-1-1-1-1-1--|

Almost there ...

Sign in to get your own page with links to favourite songs and more. You are just one click away...

Login with Facebook Login with Google