Log in

One click and you are in

Login with Facebook Login with Google

Why sign up and log in

Guitar Tabs Explorer
Marilyn Manson tabs for Man that you fear

Guitar tabs with lyrics

Album: Antichrist Superstar
As tabbed by Joe Muggah


Verse 1 (Piano arranged for Guitar 1)
e---5-6-15------12---9----17-15----------15-------17-17
B-------------------------------------------16-15------
G-----------------------------------12-----------------
D---------------------------------12--------13---------
A--------------------0----------10---------------------
E-3----------0---8-------------------------------------
("The ants are in the sugar...")

(continued)
e-13-12-------------------9---10-12-15-15-----17--17-17
B------------------------------------------------------
G------------------------------------------------------
D--------10---------------7----------------17----------
A------10------10-12----7----------------17------------
E-----8------8--------5----------------15--------------

(continued)
e-----------17-17-15--------------------17-------------
B---------------------------8--------------------------
G-------14---------------------------------------------
D-----13-----------------10---------7------------------
A---13-----------------10---------7--------------------
E-11------------------8---------5----------------------


Chorus 1A (Guitar 2)
e------------------------------------------------------
B------------------------------------------------------
G-9-9-9-9-9\7-7-7-7-7\5-5-5-5-5-5-5-5------------------
D-9-9-9-9-9\7-7-7-7-7\5-5-5-5-5-5-5-5------------------
A-7-7-7-7-7\5-5-5-5-5\3-3-3-3-3-3-3-3------------------
E------------------------------------------------------
("Pray until your number...")

Chorus 1B (Piano arranged for Guitar 1)
e-12-12-12-12--14-14-14-14-15--15-15-15----------------
B----------------------------------------15-17---------
G----------------------------------------------12------
D------------------------------------------------------
A------------------------------------------------------
E------------------------------------------------------


Verse 2A (Acoustic with effect, Guitar 2)      *Fill
e---------------------------------0-------0-0-|--------
B-------------------------------0---0-----0-0-|--------
G---------8-------5-----------2-------2---2-2-|--------
D-5-(x8)--8-(x8)--5-(x8)----2-----------2-2-2-|---5/---
A-5-------6-------3-------0---------------0-0-|---5/---
E-3-------------------------------------------|---3/---
*The fill is a heavily distorted slide over the last
little bit of Verse 2A.


Verse 2B (Piano arranged for Guitar 1)
e--------15---17-17-15----------15---17-17-15----------
B------------------------------------------------------
G-----12-----------------------------------------------
D---12-----------------------13---------------------10-
A-10-----------------------13---------------------10---
E------------------------11----------------------8-----

(continued)
e-10-8-12----------9---17-15--15-------15-17-17-17-17--
B----------10------------------------------------------
G-----------------------------12-14-15-----------------
D-----------------------------------------17-----------
A------------------7-----------------------------------
E----------------5-------------------------------------

(continued)
e---15-13-12---12-10---8-----------17------------------
B-----------------------8------------------------------
G------------------------------------------------------
D-------------------------------7----------------------
A-----------------------------7------------------------
E-8-------------------------5--------------------------


Chorus 2A (Guitar 2, heavy distortion)
e------------------------------------------------------
B------------------------------------------------------
G-------7----5----9----7----5----9----7----5-----------
D--2----7----5----9----7----5----9----7----5-----------
A--2----5----3----7----5----3----7----5----3-----------
E--0---------------------------------------------------


Chorus 2B (Piano arranged for Guitar 1)
e-12---14---15---17---14-15-17-17---12---15---10-------
B------------------------------------------------------
G------------------------------------------------------
D------------------------------------------------------
A------------------------------------------------------
E------------------------------------------------------

(continued)
e-10h12------------------------------------------------
B--------13-12-10--------------------------------------
G-------------------9----------------------------------
D------------------------------------------------------
A------------------------------------------------------
E------------------------------------------------------


Bridge A chord diagramA augmentedA (Guitar 1)      Bridge A chord diagramBB (Synth for Guitar 2)
e-----------------------|------------------------------
B-----------------------|--2--1--2^---2--1--2--5^------
G-2-------4------5------|------------------------------
D-2-(x8)--4-(x4)-5-(x4)-|------------------------------
A-0-------2------3------|------------------------------
E-----------------------|------------------------------
("I am so tangled in my sins...")


Verse 3 (Guitar 1, acoustic)
e--------------------------------------0-----0---------
B--------------------------------------0---0-0---------
G-0--------8--------5-5-----5-5------2---2---2---------
D-0-(x10)--8-(x10)--5-5---5---5----2---------2---------
A-2--------6--------3-3-3-----3--0-----------0---------
E-3----------------------------------------------------

(continued)
e----------------------------------0-------------------
B----------------------------------0-------------------
G-0---0---0-0-0--8--------5--------2-------------------
D-0---------0-0--8-(x10)--5-(x10)--2-(x6)--------------
A-2-2---2---2-2--6--------3--------0-------------------
E-3---------3-3----------------------------------------


Outro (Piano arranged for Guitar 1)
e-12-14---14-15-17---10-12---------------12-14-15------
B--------------------------13-12-----------------------
G--------------------------------12-9------------------
D------------------------------------------------------
A------------------------------------------------------
E------------------------------------------------------

(continued)
e-17-14-15-17---17-------------------------------------
B------------------15-15h17--13-12-10------------------
G-------------------------------------12-12h14---------
D------------------------------------------------------
A------------------------------------------------------
E------------------------------------------------------

(continued)
e-12-14-15-17---17-22-19---14-10-12--14-14-10--24-20-22
B--------------------------13-13---------13------------
G------------------------------------------------------
D------------------------------------------------------
A------------------------------------------------------
E------------------------------------------------------

(continued)
e-12-14-15-12---10-12-14-22---14-10---14-10-22---------
B------------------------------------------------------
G------------------------------------------------------
D------------------------------------------------------
A------------------------------------------------------
E------------------------------------------------------


Verse 1 (a guitar comes in playing the last half)

Chorus 1A, 1B

Verse 2A, 2B, Fill

Chorus 2A, 2B

Bridge A, A chord diagramBB

Verse 3

Chorus 2B, Outro

There. Another huge tab a la Trent playing Rhodes piano.
One of the best Manson songs out there, the video is a
little depressing though.

Other versions of Man That You Fear

Man that you fearChords

Almost there ...

Sign in to get your own page with links to favourite songs and more. You are just one click away...

Login with Facebook Login with Google