Log in

One click and you are in

Login with Facebook Login with Google

Why sign up and log in

Guitar Tabs Explorer
Marilyn Manson tabs for Lunchbox

Guitar tabs

Album: Portrait of an American Family
As tabbed by Joe Muggah

Fill 1
e----------------------------------------------------------
B----------------------------------------------------------
G----------------------------------------------------------
D--x--x--x--x--x--x----------------------------------------
A--x--x--x--x--x--x----------------------------------------
E--x--x--x--x--x--x----------------------------------------
Intro
e----------------------------------------------------10^---
B----------------------------------------------------10^---
G--7/9-9-x-x-x-12-x-x-x-10-10\--7/9-9-x-x-x---x-x-x--------
D--7/9-9-x-x-x-12-x-x-x--9--9\--7/9-9-x-x-x-5-x-x-x--------
A--5/7-7-x-x-x-10-x-x-x-10-10\--5/7-7-x-x-x-5-x-x-x--------
E-------------------------------------------3--------------


Verse 1                       Riff
e---------------------------|-----------3h5p3--------------
B---------------------------|--3--5--3--------5-3-0--------
G--7-------------7----------|-----------------------2-0----
D--7--7--2-------7--7--2----|------------------------------
A--5--7--2-------5--7--2----|------------------------------
E-----5--0----------5--0----|------------------------------


Pre-Chorus 1
e--------------9\7/-9----------------9---------------------
B-------------10\8/10---------------10---------------------
G--7---------------------7---------------------------------
D--7--7--2---------------7--7--2---------------------------
A--5--7--2---------------7--7--2---------------------------
E-----5--0------------------5--0---------------------------
("I got my lunchbox...")

Chorus A chord diagramA augmentedA (Guitar 1)
e-----|----------------------------------------------------
B-----|----------------------------------------------------
G--9\-|------------------7-------9\------------------------
D--9\-|--2-(x6)--5-(x6)--x-(x6)--x-----2m------------------
A--7\-|--2-------5-------5-------7\----2m-(x16)------------
E-----|--0-------3---------------------0m------------------
("I wanna grow up...")


Chorus A chord diagramBB (Guitar 2)
e----------------------------------------------------------
B----------------------------------------------------------
G--13-------12-------7-------9\----------------------------
D---x-(x6)---x-(x6)--x-(x6)--x-----2m----------------------
A--11-------10-------5-------7\----2m-(x16)----------------
E----------------------------------0m----------------------


Verse 2
e----------------------------------------------------------
B----------------------------------------------------------
G--7----------------------7--------------------------------
D--7--7--2--x-x--x--x-x---7--7--2--x-x--x--x-x-------------
A--5--7--2--x-x--x--x-x---5--7--2--x-x--x--x-x-------------
E-----5--0--x-x--x--x-x------5--0--x-x--x--x-x-------------


Pre-Chorus 2                                  end on
e-------------------------------------------|--------------
B-------------------------------------------|--------------
G--9m-9m-9m-9m-9m-9m-9m--7m-7m-7m-7m--7-----|--------------
D--9m-9m-9m-9m-9m-9m-9m--7m-7m-7m-7m--7--7--|---2----------
A--7m-7m-7m-7m-7m-7m-7m--5m-5m-5m-5m--5--7--|---2----------
E----------------------------------------5--|---0----------


Bridge
e-----------|--10----------10---------10---------10--------
B--(repeat)-|------10----------10---------10---------10----
G-----------|----------9-----------9----------9----------9-
D--2-2-2-2--|----------------------------------------------
A--2-2-2-2--|----------------------------------------------
E--0-0-0-0--|----------------------------------------------


Solo 1
e------------------12--------------------------------------
B----------------------11/12\11-10--8-7----7-8-8/10\8------
G--7m-7m-7m/9m-12-----------------------9-------------9----
D----------------------------------------------------------
A----------------------------------------------------------
E----------------------------------------------------------

Fill 2
e--------12------------------------------------------------
B--12^--------12^--\11-------------------------------------
G----------------------------------------------------------
D----------------------------------------------------------
A----------------------------------------------------------
E----------------------------------------------------------


Solo 2
e--9--10-10--7-9\----------------------------------12-10-12
B------------------8-7-----8-7---8-10-10/12-10-8-----------
G----------------------9-7-----9-----------------9---------
D----------------------------------------------------------
A----------------------------------------------------------
E----------------------------------------------------------

Fill 1

Intro

Verse 1, Riff

Verse 1

Pre-Chorus 1

Chorus A, A chord diagramBB

Intro

Verse 2

Pre-Chorus 2

Chorus A, A chord diagramBB

Bridge

Bridge, Solo 1

Bridge, Fill 2, Solo 2

Chorus A, A chord diagramBB

Verse 1

Almost there ...

Sign in to get your own page with links to favourite songs and more. You are just one click away...

Login with Facebook Login with Google