Log in

One click and you are in

Login with Facebook Login with Google

Why sign up and log in

Guitar Tabs Explorer
Marilyn Manson bass tabs for Lunchbox

Bass tabs

Song name: Lunchbox
Album: Portrait of an American family
    The last tour on earth
As tabbed by: Andrej "Oskar" Paulus

I add break part from "the last tour on earth" CD.

~ = hold that note
Intro/Verse 1                    end on
G--------------------------------------------------|------
D------------5~---7-5------------------------------|------
A--7-7-7-5------------7-5--------------------------|--7---
E----------7---------------------------------------|------


Chorus
G--------------------------------------------------
D---------5(X6)------------------------------------
A--7(X6)---------5(X6)/-7(X16)-0-------------------
E--------------------------------------------------
(I wanna grow...)


Verse 2
G--------------------------------------------------
D------7----------------------7--------------------
A--5------7-X-X--X--X-X----5----7-X-X--X--X-X------
E--------------------------------------------------
(I got pencils...)


Verse 3                       end on
G--------------------------------------------------|------
D-----------------------------7--------------------|------
A--7-7-7-7-7-7-7--5-5-5-5--5-----7-----------------|--7---
E--------------------------------------------------|------
(Pow pow pow...)

Bridge(repeat as many times as you need)
G--------------------------------------------------
D--------------------------------------------------
A--7-7-7-7-7-7-7-7-7-7-7-7-------------------------
E--------------------------------------------------


Break(from "the last tour on earth" CD, repet many times)
G--------------------------------------------------
D--------------------------------------------------
A--7-7-5----7-7-7-5--------------------------------
E--------7----------7~-----------------------------


Outro:
G--------------------------------------------------
D------7-----------------7-------------------------
A--5------7~-----------5-----7~--------------------
E--------------------------------------------------


Intro/Verse

Chorus

Intro/Verse

Verse 2

Verse 3

Chorus

Bridge

Break

Chorus

Bridge

Outro

Questins, comments, please let me know.
andrej_paulus@net.hr

Almost there ...

Sign in to get your own page with links to favourite songs and more. You are just one click away...

Login with Facebook Login with Google