Log in

One click and you are in

Login with Facebook Login with Google

Why sign up and log in

Guitar Tabs Explorer
Marilyn Manson tabs for Like a virgin

Guitar tabs with lyrics

Album: From Highway to Hell
As tabbed by Joe Muggah

Tuned down half a step
E,A,D,G,B,e  becomes Eb,Ab,Db,Gb,Bb,eb

Bass Verse
Gb-------------------------------------------------------
Db-------------------------------------------------------
Ab-----7--5----------7--5--7------7--5----------7--5--7--
Eb--5---------5---5------------5---------5---5-----------
Verse
eb-------------------------------------------------------
Bb--8----8---8-8---8----8----8-----8---8-----------------
Gb--9----9---9-9---9----9----9-----9---9-----------------
Db-------------------------------------------------------
Ab-------------------------------------------------------
Eb-------------------------------------------------------

Bass Riff
Gb-------------------------------------------------------
Db-------------------------------------------------------
Ab------------------------------------5-6----------------
Eb--7---7---7---7--7---5---5---5-5-----------------------

Bass Pre-Chorus                        twice then:
Gb---------------------------------------|---------------
Db---------------------------------------|---------------
Ab----------------------7-7-7-7-7-7-7-7--|-5-(x11)---6---
Eb--7---7---7---7--7---------------------|---------------

Bass Bridge
Gb-------------------------------------------------------
Db-------------------------------------------------------
Ab-7-7-7-7-7-7-7-7---------------------------------------
Eb-------------------5-5-5-5-5-5-5-5---------------------


Bridge A chord diagramA augmentedA (Guitar 1, playing different variations)
eb--15--17----------15--17--15---------------------------
Bb----------15--17-------------17------------------------
Gb-------------------------------------------------------
Db-------------------------------------------------------
Ab-------------------------------------------------------
Eb-------------------------------------------------------


Bridge A chord diagramBB (Guitar 2)
eb--15------12-------15------12-------15------12---------
Bb-------------------------------------------------------
Gb-------------------------------------------------------
Db-------------------------------------------------------
Ab-------------------------------------------------------
Eb-------------------------------------------------------

Bass Verse
Bass Verse, Verse
Bass Riff
Bass Verse, Verse
Bass Riff
Bass Verse, Verse
Bass Pre-Chorus
Bass Verse, Verse
Bass Riff
Bass Verse, Verse
Bass Verse
Bass Pre-Chorus
Bass Verse, Verse
Bass Riff
Bass Bridge
Bass Verse, Verse
Bass Verse

Bridge A chord diagramA augmentedA

Bridge A, Bass Verse

Bridge A, B, Bass Verse
Bass Verse

I never thought I'd see it, but Manson goes Madonna. A chord diagramA augmentedA
really trippy song.

Almost there ...

Sign in to get your own page with links to favourite songs and more. You are just one click away...

Login with Facebook Login with Google