Log in

One click and you are in

Login with Facebook Login with Google

Why sign up and log in

Guitar Tabs Explorer
Marilyn Manson tabs for Let your ego die

Guitar tabs

Album: The Family Jams
As tabbed by Joe Muggah

\f = finger slide
Intro (each hit 2 times)
e----------------------------------------------------------
B----------------------------------------------------------
G--7-7-7-7--7-7-7-7----------------------------------------
D--7-7-7-7--7-7-7-7--7-7-7-7--7-7-7-7----------------------
A--5-5-5-5--5-5-5-5--7-7-7-7--7-7-7-7----------------------
E--------------------5-5-5-5--5-5-5-5----------------------


Riff
e----------------------------------------------------------
B----------------------------------------------------------
G-----7-----5^-----7-----10^-----7-----5^-----7-----10^----
D--0-----0------0-----0-------0-----0------0-----0---------
A----------------------------------------------------------
E----------------------------------------------------------

(continued)
e----------------------------------------------------------
B----------------------------------------------------------
G-----12-----13-----5-----5h7------------------------------
D--0------0------0-----0-----------------------------------
A----------------------------------------------------------
E----------------------------------------------------------


Verse 1
e--------5-------5-------5-------5-------------------------
B--0-0-0---0-0-0---0-0-0---0-0-0---------------------------
G----------------------------------7-7-7--7--x-x--7-7-7--7-
D----------------------------------7-7-7--7--x-x--7-7-7--7-
A----------------------------------5-5-5--5--x-x--5-5-5--5-
E----------------------------------------------------------
("She cuts your paper...")

(continued)
e----------------------------------------------------------
B-------------------------------------------3-3-3-3--------
G-\-4-4-4-4--x-x----------------------------4-4-4-4--x-x---
D-\-4-4-4-4--x-x--5-5-5-5--7-7-7-7-7-7-7-7--4-4-4-4--x-x---
A-\-2-2-2-2--x-x--5-5-5-5--7-7-7-7-7-7-7-7--2-2-2-2--x-x---
E-----------------3-3-3-3--5-5-5-5-5-5-5-5-----------------

(continued)
e----------------------------------------------------------
B----------------------------------------------------------
G--4-4-4-4--6-6-6-7-7-6-6---\f-----------------------------
D--5-5-5-5--7-7-7-7-7-7-7---\f-----------------------------
A--5-5-5-5--7-7-7-7-7-7-7---\f-----------------------------
E--3-3-3-3--5-5-5-5-5-5-5----------------------------------

Chorus A chord diagramA augmentedA (Guitar 1)
e----------------------------------------------------------
B----------------------------------------------------------
G--7-7-7-5-7-10-10-10-10----5--7-7-7-5-7-10-10-10-9\10-10--
D--7-7-7-5-7-10-10-10-10--7-5--7-7-7-5-7-10-10-10-9\10-10--
A--5-5-5-3-5--8--8--8--8--7-3--5-5-5-3-5--8--8--8-7\-8--8--
E-------------------------5--------------------------------
("I can see you baby...")


Chorus A chord diagramBB (Synth arranged for Guitar 2)
e--------------------------------------------13--13--------
B--15---13--10----10--13-------15---13--10----x---x--------
G---x----x---x-----x---x--------x----x---x---10--10--------
D--12---10---7-----7--10-------12---10---7-----------------
A----------------------------------------------------------
E----------------------------------------------------------

Fill	     Bridge A chord diagramA augmentedA (Guitar 1)
e--------|-------------------------------------------------
B--------|-------------------------------------------------
G--7---5-|-------------------5-5-5-5-5-5-5-5--7-5-7-5-7-5--
D--7---5-|--7-7-7-7-7-7-7-7--5-5-5-5-5-5-5-5--7-5-7-5-7-5--
A--5---3-|--7-7-7-7-7-7-7-7--3-3-3-3-3-3-3-3--5-3-5-3-5-3--
E--------|--5-5-5-5-5-5-5-5--------------------------------


Bridge A chord diagramBB (Synth arranged for Guitar 2)
e----------------------------------------------------------
B----------------------------------------------------------
G--10-----13-----15--13--15--13--15--13--------------------
D---x------x------x---x---x---x---x---x--------------------
A---7-----10-----12--10--12--10--12--10--------------------
E----------------------------------------------------------


Solo
e----------------------------------------------------------
B--12\10-10-10-10--10\8-10p8-10p8-10p8---------------------
G---------------------------------------9-9-10-10-9-9-5-5--
D----------------------------------------------------------
A----------------------------------------------------------
E----------------------------------------------------------

(continued)
e----------------------------------------------------------
B----------------------------------------------------------
G--7-7-7-5-7-5-5\---7/8-8^-8^-8\7--7/8-8^-8^-8\7-5---------
D---------------------------------------------------7-7-7--
A----------------------------------------------------------
E----------------------------------------------------------

(continued)
e----------------------------12-12-10----------------------
B------------------------10-----------13--10-10--12-12-----
G--5-5-----------------------------------------------------
D-------5---5---7---7--------------------------------------
A---------0---0---0----------------------------------------
E----------------------------------------------------------

(continued)
e---------15-13-12-17-15-----17-15----17-17-18-18-19-19-20-
B--13-13-----------------17--------17-17-17-18-18-19-19-20-
G----------------------------------------------------------
D----------------------------------------------------------
A----------------------------------------------------------
E----------------------------------------------------------

(continued)
e----------------------------------------------------------
B-------------------------13-13-13-13-13-------------------
G--14-14-14-14-14--12-12---x--x--x--x--x-------------------
D---x--x--x--x--x---x--x--10-10-10-10-10-------------------
A--12-12-12-12-12--10-10-----------------------------------
E----------------------------------------8-5-5--8--5--8--5-

(continued)
e----------------------------------------------------------
B----------------------------------------13-13-------------
G--------14-14-14-14-14-14----------------x--x-------------
D----7\---x--x--x--x--x--x---------10-10-10-10-------------
A----x---12-12-12-12-12-12--10-10---------------12-12-12---
E--8-5\----------------------------------------------------

(continued)
e----------------------------------------------------------
B-------------------13-13-13-13---16-16-16-16-16--16-16-16-
G--------------------x--x--x--x----x--x--x--x--x-----------
D-------------------10-10-10-10---13-13-13-13-13-----------
A--12-12-12--10-10-----------------------------------------
E----------------------------------------------------------

(continued)
e----------------------------------------------------------
B--16-16-16-16-\-------------------------------------------
G---x--x--x--x-----12---14---------------------------------
D--13-13-13-13-\----x----x---7\----------------------------
A------------------10---12---x-----------------------------
E----------------------------5\----------------------------


Verse 2
e--------------------------------------------------9--9--9-
B---------------------------------3-3-3-----------10-10-10-
G--4-4-4--------------------------4-4-4--4-4-4-----9--9--9-
D--4-4-4--5-5-5--7-7-7-7-7-7-7-7--4-4-4--5-5-5--7----------
A--2-2-2--5-5-5--7-7-7-7-7-7-7-7--2-2-2--5-5-5--7----------
E---------3-3-3--5-5-5-5-5-5-5-5---------3-3-3--5----------


Outro
e----------------------------------------------------------
B----------------------------------------------------------
G--7-----4-----7-----4-----7-----4-----7-----4-------------
D--7-----4-----7-----4-----7-----4-----7-----4-------------
A--5-----2-----5-----2-----5-----2-----5-----2-------------
E----------------------------------------------------------


Intro

Riff

Verse 1

Chorus A, A chord diagramBB
Fill

Bridge A, A chord diagramBB

Bridge B, Solo

Verse 2

Chorus A, A chord diagramBB

Outro

Almost there ...

Sign in to get your own page with links to favourite songs and more. You are just one click away...

Login with Facebook Login with Google