Log in

One click and you are in

Login with Facebook Login with Google

Why sign up and log in

Guitar Tabs Explorer
Marilyn Manson tabs for Lamb of god

Guitar tabs with lyrics

Album: Holy Wood
As tabbed by Joe Muggah

Guitar 1 is accoustic
Intro
e-0----------------0-------------------------------
B-1----------------1-------------------------------
G-2----4---2--0----2----4---2--0-------------------
D-2----5---3--2----2----5---3--2-------------------
A-0----5---3--2----0----5---3--2-------------------
E------3---1--0---------3---1--0-------------------


Verse 1A (Guitar 1)
e-----0-------0---0-------0-------0---0------------
B-----1-------0---0-------1-------0---0------------
G-----2-------4---2-------2-------4---2------------
D---2-2-------5---3-----2-2-------5---3------------
A-0---0-----5-5---3----0--0-----5-5---3------------
E---------3---3---1-----------3---3---1------------
("There was Christ in a metal shell...")


Verse 2A (Guitar 1, strumming)
e-----0-------0-------0----------------------------
B-----1-------0-------0----------------------------
G-----2-(x8)--4-(x4)--2-(x4)-----------------------
D-----2-------5-------3----------------------------
A-----0-------5-------3----------------------------
E-------------3-------1----------------------------
("If you die while there's no one watching...")


Verse 2B (Guitar 2)
e-8--5--8--5--8--5--8--5--7--5--7--5^--------------
B--------------------------------------------------
G--------------------------------------------------
D--------------------------------------------------
A--------------------------------------------------
E--------------------------------------------------

Chorus A chord diagramA augmentedA (Guitar 1)
e-0-------3-------1--------0-------3-------1-------
B-1-------3-------1--------1-------3-------1-------
G-0-(x10)-4-(x10)-2-(x20)--2-(x10)-4-(x10)-2-(x20)-
D-2-------5-------3--------2-------5-------3-------
A-3-------5-------3--------0-------5-------3-------
E---------3-------1----------------3-------1-------
("Nothing's going to change the world...")


Chorus A chord diagramBB (Guitar 2, light distortion)
e--------------------------------------------------
B--------------------------------------------------
G-5------------------------2-----------------------
D-5-(x10)-5-(x10)-3-(x20)--2-(x10)-5-(x10)-3-(x20)-
A-3-------5-------3--------0-------5-------3-------
E---------3-------1----------------3-------1-------


Verse 1B (Guitar 2)
e--------------------------------------------------
B-----------3-3---3-5-------------3----------------
G-2---2-4-5-----5-----2-2---2-4-5----5-4-2---------
D--------------------------------------------------
A--------------------------------------------------
E--------------------------------------------------


Chorus A chord diagramC majorC (Guitar 2 or 3)
e-8--7--5--3--5---5--5--7--5--3--5--5--3--5--5--3--
B--------------------------------------------------
G--------------------------------------------------
D--------------------------------------------------
A--------------------------------------------------
E--------------------------------------------------


Verse 1 A chord diagramC majorC (Guitar 2)
e-------------4^-----4^----------------------------
B---------3----------------------------------------
G-2---4-5---5-------------2------------------------
D--------------------------------------------------
A--------------------------------------------------
E--------------------------------------------------


Outro
e--------------------------------------------------
B----------3------3--------------------------------
G-2--2-4-5---3-5----4-2----------------------------
D--------------------------------------------------
A--------------------------------------------------
E--------------------------------------------------


Intro

Verse 1A

Verse 2A, 2B

Intro

Verse 1A

Verse 2A, 2B

Chorus A, A chord diagramBB

Verse 1B

Verse 1A, 1B

Chorus A, A chord diagramBB

Chorus A, B, A chord diagramC majorC

Verse 1A

Verse 1A, 1C

Outro

This song has a very rap-like beat. Maybe Manson was
influenced when hanging around Eminem.

Other versions of Lamb Of God

Lamb of godChords

Almost there ...

Sign in to get your own page with links to favourite songs and more. You are just one click away...

Login with Facebook Login with Google