Log in

One click and you are in

Login with Facebook Login with Google

Why sign up and log in

Guitar Tabs Explorer
Marilyn Manson chords for King kill 33

Guitar chords

Album: Holy Wood
As tabbed by Joe Muggah

Dropped A chord diagramD MajorD
Intro
e---------------------------------------------------
B---------------------------------------------------
G---------------------------------------------------
D-1-1-------1-1-------1-1-------7-7-7-7-------------
A-1-1--4h6--1-1--6p4--1-1--4h6--7-7-7-7-------------
D-1-1-------1-1-------1-1-------7-7-7-7-------------


Verse A chord diagramA augmentedA (Guitar 1)
e---------------------------------------------------
B---------------------------------------------------
G---------------------------------------------------
D-1-1-------1-1-------1-1-------1-1-----------------
A-1-1--4h6--1-1--4h6--1-1--4h6--1-1--6p4------------
D-1-1-------1-1-------1-1-------1-1-----------------
("Is this what you wanted ...")


Verse A chord diagramA augmentedA (continued)
e---------------------------------------------------
B---------------------------------------------------
G---------------------------------------------------
D-1-1-------1-1-------1-1-------7-7-7-7-------------
A-1-1--4h6--1-1--4h6--1-1--4h6--7-7-7-7-------------
D-1-1-------1-1-------1-1-------7-7-7-7-------------


Verse A chord diagramBB (Guitar 2)
e-17------------------17----------------------------
B-----16--17--------------16--17--------------------
G-------------15-14---------------------------------
D---------------------------------------------------
A---------------------------------------------------
D---------------------------------------------------


Intro

Verse A chord diagramA augmentedA

Verse A, A chord diagramBB

That's the whole song. This song has a NIN kind of
feel to it.

Other versions of King Kill 33

King kill 33Tabs

Almost there ...

Sign in to get your own page with links to favourite songs and more. You are just one click away...

Login with Facebook Login with Google