Log in

One click and you are in

Login with Facebook Login with Google

Why sign up and log in

Guitar Tabs Explorer
Marilyn Manson bass tabs for Kill4me

Bass tabs

Intro:

G|-----------------------|-------------------------|-----------------------|-------------------------|
D|-----------------------|-------------------------|-----------------------|-------------------------|
A|-----7-7/5-5/3-3--3-3/-|-------------------------|-----7-7/5-5/3-3--3-3/-|-------------------------|
E|-0-x-------------------|-5---5-5-5---5-3---3-7-2-|-0-x-------------------|-5---5-5-5---5-3---3-7-2-|

G|-----------------------|---------------------------|
D|-----------------------|---------------------------|
A|-----7-7/5-5/3-3--3-3/-|---------------------------|
E|-0-x-------------------|-5---5-5-5---5-3---3-3\7-7-|
Verse: x2 Let's grab...

G|-----------------------|---------------------------|
D|-----------------------|---------------------------|
A|-----7-7/5-5/3-3--3-3/-|---------------------------|
E|-0-x-------------------|-5---5-5-5---5-3---3-3\7-2-|

G|-----------------------|---------------------------|
D|-----------------------|---------------------------|
A|-----7-7/5-5/3-3--3-3/-|---------------------------|
E|-0-x-------------------|-5---5-5-5---5-3---3-3\7-7-|


Chorus: x2 Would you kill...

G|-----------------|-----------|-----------------|
D|-----------------|-----------|-----------------|
A|-----7-7/5-5/3-3-|-3-3/2-2/0-|-0-0-0-0---------|
E|-0-x-------------|-----------|---------3-3-7-7-|


Verse: Bloody noses...

G|-----------------------|---------------------------|
D|-----------------------|---------------------------|
A|-----7-7/5-5/3-3--3-3/-|---------------------------|
E|-0-x-------------------|-5---5-5-5---5-3---3-3\7-2-|

G|-----------------------|---------------------------|
D|-----------------------|---------------------------|
A|-----7-7/5-5/3-3--3-3/-|---------------------------|
E|-0-x-------------------|-5---5-5-5---5-3---3-3\7-7-|

Verse: Your hotel...

G|------|-----------------------|---------------------------|
D|------|-----------------------|---------------------------|
A|------|-----7-7/5-5/3-3--3-3/-|---------------------------|
E|-12/0-|-0-x-------------------|-5---5-5-5---5-3---3-3\7-2-|

G|-----------------------|---------------------------|
D|-----------------------|---------------------------|
A|-----7-7/5-5/3-3--3-3/-|---------------------------|
E|-0-x-------------------|-5---5-5-5---5-3---3-3\7-7-|


Chorus: x2 Would you kill...

G|-----------------|-----------|-----------------|
D|-----------------|-----------|-----------------|
A|-----7-7/5-5/3-3-|-3-3/2-2/0-|-0-0-0-0---------|
E|-0-x-------------|-----------|---------3-3-7-7-|


Bridge: x8 Sideways for attention...

G|---------|---------------|
D|---------|---------------|
A|---------|-5-3---3-------|
E|-0-0-0---|---------5---3-|


Chorus: x5

G|-----------------|-----------|-----------------|
D|-----------------|-----------|-----------------|
A|-----7-7/5-5/3-3-|-3-3/2-2/0-|-0-0-0-0---------|
E|-0-x-------------|-----------|---------3-3-7-7-|

************************************

| x  Dead note
| /  Slide up
| \  Slide down

Almost there ...

Sign in to get your own page with links to favourite songs and more. You are just one click away...

Login with Facebook Login with Google