Log in

One click and you are in

Login with Facebook Login with Google

Why sign up and log in

Guitar Tabs Explorer
Marilyn Manson tabs for Kaboom kaboom

Guitar tabs

Album: The Golden Age of Grotesque (2003)
As tabbed by Joe Muggah

Dropped A chord diagramD MajorD and tuned down a step and a half

Chorus
db---------------------------------------------------------
Ab---------------------------------------------------------
E---------------------------------------5^-----------------
B----------------------------------------------------------
Gb--6-5-5-5---5-5--5-5---6-5-5-5---5-----------------------
B---0-0-0-0---0-0--0-0---0-0-0-0---0-----------------------


Verse
db---------------------------------------------------------
Ab---------------------------------------------------------
E----------------------------------------------------------
B----12^-----12^-------------------------------------------
Gb------------------11--11--11---11^--\--------------------
B----------------------------------------------------------


Pre-Chorus (each hit 2 times)
db---------------------------------------------------------
Ab---------------------------------------------------------
E----------------------------------------------------------
B---0-0-0-0--3-3--8-8--7-7-7-7-7-7-7-7---------------------
Gb--0-0-0-0--3-3--8-8--7-7-7-7-7-7-7-7---------------------
B---0-0-0-0--3-3--8-8--7-7-7-7-7-7-7-7---------------------


Bridge
db---------------------------------------------------------
Ab---------------------------------------------------------
E----------------------------------------------------------
B----------------------------------------------------------
Gb--5-5-5-5--5-5-5-5---------------------------------------
B---------------------6-6-6-6--6-6-6-6---------------------


Chorus

Verse

Pre-Chorus

Chorus

Verse

Pre-Chorus

Chorus

Bridge

Pre-Chorus




_________________________________________________________________

Almost there ...

Sign in to get your own page with links to favourite songs and more. You are just one click away...

Login with Facebook Login with Google