Log in

One click and you are in

Login with Facebook Login with Google

Why sign up and log in

Guitar Tabs Explorer
Marilyn Manson tabs for Irresponsible hate anthem

Guitar tabs

Album: Antichrist Superstar
As tabbed by Joe Muggah


Chorus
e-------------------------------------------------------
B-------------------------------------------------------
G-------------------------------------------------------
D-4-4-4-7-7-7-9-9-10-10-10-9-9-9-7-7--4-4-4-7-7-7-9-9---
A-4-4-4-7-7-7-9-9-10-10-10-9-9-9-7-7--4-4-4-7-7-7-9-9---
E-2-2-2-5-5-5-7-7--8--8--8-7-7-7-5-5--2-2-2-5-5-5-7-7---

(continued)
e-------------------------------------------------------
B-(first time)----(second time)-------------------------
G-----------------9-9-9-9-9-9-10------------------------
D-2-2-2-2-2-2-3---9-9-9-9-9-9-10------------------------
A-2-2-2-2-2-2-3---7-7-7-7-7-7--8------------------------
E-0-0-0-0-0-0-1-----------------------------------------

Bass-Verse
G-------------------------------------------------------
D-------------------------------------------------------
A-------------------------------------------------------
E-2-2-2-5-5-5-7-7-8-8-8-7-7-7-5-5--4-4-4-5-5-5-7-7-*0-1-
("I am so all American...")
* play this note 8 times


Verse (palm-muted and repeated a lot)
e-------------------------------------------------------
B-------------------------------------------------------
G-------------------------------------------------------
D--4--4--4--4--4--4--4--4--4--4-------------------------
A--4--4--4--4--4--4--4--4--4--4-------------------------
E--2--2--2--2--2--2--2--2--2--2-------------------------
("Hey victim...")

Post-Chorus                                     end on
e-------------------------------------------------|-----
B-------------------------------------------------|-----
G---5-4--2-4-2----5-4--2-4-2----5-4--2-4-2--------|-----
D-4-5-4--2-4-2--4-5-4--2-4-2--4-5-4--2-4-2--2--3--|--4--
A-4-3-2--0-2-0--4-3-2--0-2-0--4-3-2--0-2-0--2--3--|--4--
E-2-------------2-------------2-------------0--1--|--2--
("Everybody is...")

Bridge
e-------------------------------------------------------
B-------------------------------------------------------
G-11---12---11---12---11-12---11---12---11---12---11-12-
D-------------------------------------------------------
A-------------------------------------------------------
E-------------------------------------------------------

(continued)
e-------------------------------------------------------
B-------------------11----------------------------------
G-11---12---11---12----12-------------------------------
D-------------------------------------------------------
A-------------------------------------------------------
E-------------------------------------------------------


Riff
e-14^--14^--13h14^---14^--14^--13h14^-------------------
B-------------------------------------------------------
G-------------------------------------------------------
D-------------------------------------------------------
A-------------------------------------------------------
E-------------------------------------------------------


Outro
e-------------------------------------------------------
B-------------------------------------------------------
G-9-9-9-9-9-9-10----------------------------------------
D-9-9-9-9-9-9-10---4---4---4---4---4--------------------
A-7-7-7-7-7-7--8---4---4---4---4---4--------------------
E------------------2---2---2---2---2--------------------


Chorus
Bass-Verse

Chorus
Bass-Verse, Verse

Chorus
Post-Chorus
Bass-Verse, Bridge

Chorus
Post-Chorus

Bridge

Chorus, Riff
Post-Chorus

Outro

Other versions of Irresponsible Hate Anthem

Irresponsible hate anthemChords

Almost there ...

Sign in to get your own page with links to favourite songs and more. You are just one click away...

Login with Facebook Login with Google