Log in

One click and you are in

Login with Facebook Login with Google

Why sign up and log in

Guitar Tabs Explorer
Marilyn Manson tabs for In the shadow of the valley of death

In The Shadow Of The Valley Of Death tab by Marilyn Manson

Marilyn Manson tabs for In the shadow of the valley of death

Guitar tabs with lyrics

Album: Holy Wood
As tabbed by Joe Muggah

Standard tuning
Guitar 1 is accoustic
Bass in Dropped A chord diagramA augmentedA

Chords used:
    A chord diagramAsus2Asus2   A chord diagramA minorAm    A chord diagramG+G     A chord diagramFF    A chord diagramC majorC  ** A chord diagramD MajorD
e-----0------0----3-----1----0--/--0----------------
B-----0--*h--1----3-----1----1--/--3----------------
G-----2------2----0-----2----0--/--0----------------
D-----2------2----0-----3----2--/--4----------------
A-----0------0----2-----3----3--/--5----------------
E-----------------3-----1---------------------------
*  The A chord diagramAsus2Asus2 is always followed by a hammer on A chord diagramA minorAm
** The A chord diagramC majorC is always followed by a slide to the A chord diagramD MajorD
Intro:
A chord diagramAsusAsus  h A chord diagramA minorAm     A chord diagramAsusAsus   h A chord diagramA minorAm


Verse 1A (Guitar 1)
A chord diagramAsus2Asus2       h A chord diagramA minorAm      A chord diagramAsus2Asus2                 h A chord diagramA minorAm
We have no future,  Heaven ... ....... ....meee

A chord diagramG+G                  A chord diagramAsus2Asus2 h A chord diagramA minorAm  A chord diagramG+G           A chord diagramAsus2Asus2 h A chord diagramA minorAm
We burn ourselves to heeell, as fast as it can beee.

A chord diagramC majorC                            A chord diagramFF
I wish .... ....... .....    king

A chord diagramC majorC                /  A chord diagramD MajorD
Then I'd know that I ....

Verse 1B (Synthasizer arranged for Guitar 2)
e---------------------------------------------
B---------------------------------------------
G----7-5-----7-5-----7-5-----7-5---7--2-4-2---
D----------------------------------5----------
A-0--------0------0-------0-------------------
E---------------------------------------------


Verse 1B (continued)
e---------------------------------------------
B---------------------------------------------
G-7--2-4-2---0-----------------------0---0----
D-5----------2---3-2---0---4-2-4-2---2---4----
A------------3---------2-------------3---5----
E----------------------3----------------------


Verse 2 Bass
G---------------------------------------------
D---------------------------------------------
A---------------------------------------------
A-0--12-10--0---10-8--0--8-7--8-7--5-7-5------


Verse 2A (Guitar 1, strumming the chords)
A chord diagramA minorAm   A chord diagramAsus2Asus2   h A chord diagramA minorAm
("Death is a policeman, Death is a priest...")


Verse 2B (Guitar 2)
e-8------8------8-----8------8------8---------
B---10-----10-----10----10-----10-----10------
G------9------9------------9------9-----------
D---------------------------------------------
A---------------------------------------------
E---------------------------------------------


Intro

Verse 1A

Verse 1A, 1B

Verse 2A, 2B, Bass

A chord diagramA augmentedA mellow song, at least until Verse 2. A chord diagramA augmentedA really
cool song.
_________________________________________________________________________
Get Your Private, Free E-mail from MSN Hotmail at http://www.hotmail.com.

Other versions of In The Shadow Of The Valley Of Death

In the shadow of the valley of deathChords

Almost there ...

Sign in to get your own page with links to favourite songs and more. You are just one click away...

Login with Facebook Login with Google