Log in

One click and you are in

Login with Facebook Login with Google

Why sign up and log in

Guitar Tabs Explorer
Marilyn Manson bass tabs for I put a spell on you

I Put A Spell On You bass tab by Marilyn Manson

Marilyn Manson bass tabs for I put a spell on you

Bass tabs

Track 9 from Smells Like Children - I Put a Spell on You


Tuning - Drop D
Intro - Drums

*This song is basically just one big piece that doesn't stop until the end*

    Intro
G |--------------|
D |--------------|
A |--------------|
E |--0/12-12-12--|

      Verse
G |--------------------------|
D |--------------------------| X8
A |--------------------------|
D |--0----0----0----3--3--3--|

G |--------------------------|
D |--------------------------| X2
A |--0----0----0----3--3--3--|
D |--------------------------|

G |--------------------------|
D |--------------------------| X2
A |--------------------------|
D |--0----0----0----3--3--3--|

G |---------------------|
D |---------------------|
A |--2----2-----2----2--|
D |---------------------|

G |--------------------------|
D |--------------------------| X2
A |--------------------------|
D |--0----0----0----3--3--3--|

Rest for a moment

      Chorus
G |--------------------------|
D |--------------------------| X6
A |--------------------------|
D |--0----0----0----3--3--3--|

G |--------------------------|
D |--------------------------| X2
A |--0----0----0----3--3--3--|
D |--------------------------|

G |--------------------------|
D |--------------------------| X2
A |--------------------------|
D |--0----0----0----3--3--3--|

G |---------------------|
D |---------------------|
A |--2----2-----2----2--|
D |---------------------|

G |--------------------------|
D |--------------------------| X8
A |--------------------------|
E |--0----0----0----3--3--3--|

G |--------------------------|
D |--------------------------| X2
A |--0----0----0----3--3--3--|
E |--------------------------|

G |--------------------------|
D |--------------------------| X2
A |--------------------------|
E |--0----0----0----3--3--3--|

G |---------------------|
D |---------------------|
A |--2----2-----2----2--|
E |---------------------|

G |--------------------------|
D |--------------------------| X3
A |--------------------------|
E |--0----0----0----3--3--3--|

G |--------------------------|
D |--------------------------| X2
A |--0----0----0----3--3--3--|
E |--------------------------|

G |--------------------------|
D |--------------------------| X2
A |--------------------------|
E |--0----0----0----3--3--3--|

G |--------------------------|
D |--------------------------| X2
A |--0----0----0----3--3--3--|
E |--------------------------|

G |--------------------------|
D |--------------------------| X2
A |--------------------------|
E |--0----0----0----3--3--3--|

G |-----|
D |-----|
A |-----|
E |--0--|

Almost there ...

Sign in to get your own page with links to favourite songs and more. You are just one click away...

Login with Facebook Login with Google