Search tabs and chords

Search for song, artist or band

Log in

One click and you are in

Login with Facebook Login with Google

Why sign up and log in

Guitar Tabs Explorer
Marilyn Manson guitar tabs for Heart shaped glasses

Guitar tabs

Tabbed By: nightcralwer511
E-mail: nightcralwer511@hotmail.com

Tuning: standard EADG

Intro:
G|---------------------------------------------------------------|
D|------5------555------5-----555--------------------------------|
A|----------------------------------3---3---3---3---3—2-2--------| 4x
E|--5-------5---------5-----5-------------------------------3----|

Verse:
G|----------------------------------|
D|------5------555------5-----555---|
A|----------------------------------| Repeat many times
E|--5-------5---------5-----5-------|

Pre-chorus:
G|---------------------------------------------------------------|
D|------5------555------5-----555--------------------------------|
A|----------------------------------3---3---3---3---5---5---5---5| 2x
E|--5-------5---------5-----5------------------------------------|

G|----------------------------------|
D|----------------------------------|
A|--7-7-7-7-7-7-7-7-7-7-7-7-7---7---| 1x
E|----------------------------------|

Chorus: (same as intro)
G|---------------------------------------------------------------|
D|------5------555------5-----555--------------------------------|
A|----------------------------------3---3---3---3---3—2-2--------| 4x
E|--5-------5---------5-----5-------------------------------3----|

Interlude:
G|-----------------------------------7-----------7---9---7--------|
D|-7---7---7---9---10---7---7---10-------9---9--------------10---9|
A|----------------------------------------------------------------|
E|----------------------------------------------------------------|


END

Almost there ...

Sign in to get your own page with links to favourite songs and more. You are just one click away...

Login with Facebook Login with Google