Log in

One click and you are in

Login with Facebook Login with Google

Why sign up and log in

Guitar Tabs Explorer
Marilyn Manson guitar tabs for Great big white world

Guitar tabs

Album: Mechanical Animals
As tabbed by Joe Muggah


Intro/Verse
e-----------------------------------------------------
B-----------------------------------------------------
G-3--5---8--7b^*---3--5---8---7-5---------------------
D-----------------------------------------------------
A-----------------------------------------------------
E-----------------------------------------------------
("In space the stars...")
*bend up and down slowly
Break
e-----------------------------------------------------
B--4-------6------------------------------------------
G------5-------7---5-------5--------------------------
D----------------------6-------6----------------------
A-----------------------------------------------------
E-----------------------------------------------------


Bridge
e-----------------------------------------------------
B---4-3----4-3----4-----4-3----4-3----4---------------
G-5------5------5-----4------4------4-----------------
D-----------------------------------------------------
A-----------------------------------------------------
E-----------------------------------------------------
("But I'm not attached...")

(continued)
e-----------------------------------------------------
B---4-3----4-3----4-----4-3----4-3----4---------------
G-3------3------3-----2------2------2-----------------
D-----------------------------------------------------
A-----------------------------------------------------
E-----------------------------------------------------

Pre-chorus A chord diagramA majorA (Guitar 1, each hit 6 times)
e-----------------------------------------------------
B-----------------------------------------------------
G---------5---5-----------5---5-----------------------
D-8---6---5---5---8---6---5---5-----------------------
A-8---6---3---3---8---6---3---3-----------------------
E-6---4-----------6---4-------------------------------
("Because it's a great big white world....")


Pre-Chorus A chord diagramBB (Guitar 2)
e---------------------------------------------------8-
B-----------------------------------------------------
G-5-7-5--8/10-10-10-10-8-5---5-7-5--8/10-10-10-10-8---
D-----------------------------------------------------
A-----------------------------------------------------
E-----------------------------------------------------


Chorus A chord diagramA majorA (Guitar 1)	  *
e-----------------------------------------------------
B-----------------------------------------------------
G-----------------------------------------------------
D-3------6------10-------\8-------\6-6-6-6-6-5-5-4-4--
A-3-(x8)-6-(x8)-10-(x10)-\8-(x10)-\6-6-6-6-6-5-5-4-4--
E-1------4-------8-------\6-------\4-4-4-4-4-3-3-2-2--
("All my stitches itch...")
*The second time you play the chorus in the song, stop
here and then go all the way through the chorus


Chorus A chord diagramBB (Guitar 2, faintly)
e---18---16---20----18---16---20----------------------
B-----------------------------------------------------
G-----------------------------------------------------
D-----------------------------------------------------


Solo
e-13^-13^-13^-13^-13^-13^--15^-15^-15^-15^-15^-15^----
B-----------------------------------------------------
G-----------------------------------------------------

(continued)
e-16^-16^-16^-16^-16^-16^--18^-18^-18^--20-20-20-20---
B-----------------------------------------------------
G-----------------------------------------------------

(added the second time)
e-20^-20^-20^-20^-20^-20^-20^--18^--16^--15^----------
B-----------------------------------------------------
G-----------------------------------------------------


Outro
e-----------------------------------------------------
B-----------------------------------------------------
G-----------------------------------------------------
D-5--5--5--5--5/10--10--10--10--10--------------------
A-----------------------------------------------------
E-----------------------------------------------------

(continued; repeated until the end)
e-----------------------------------------------------
B-----------------------------------------------------
G-12-12p13-12--12p13-12--12p13-12-12-10-10------------
D-----------------------------------------------------
A-----------------------------------------------------
E-----------------------------------------------------


Intro/Verse

Break

Bridge

Pre-Chorus A, A chord diagramBB

Chorus A, A chord diagramBB

Verse

Pre-Chorus A, A chord diagramBB

Chorus A, A chord diagramBB (1 and a half chorus)

Bridge

Chorus A, Solo

Chorus A, Outro

Other versions of Great Big White World

Great big white world - soloTabs

Almost there ...

Sign in to get your own page with links to favourite songs and more. You are just one click away...

Login with Facebook Login with Google