Search tabs and chords

Search for song, artist or band

Log in

One click and you are in

Login with Facebook Login with Google

Why sign up and log in

Guitar Tabs Explorer
Marilyn Manson bass tabs for Great big white world

Great Big White World bass tab by Marilyn Manson

Marilyn Manson bass tabs for Great big white world

Bass tabs

G|-------------------------|
     D|--5------6------7--------|
     A|------3------3------3----|
     E|-------------------------|

        0:58   (x4)
     G|--------------------------------|-----------------------------|
     D|--------------------------------|-----------------------------|
     A|-1h3--3-3-3-3--3--3-3--3-3-3----|-1h3--3-3-3-3--3--3-3--3-3-3-|
     E|--------------------------------|-----------------------------|

        1:21   (x4)
     G|--------------------------|---------------------------|
     D|--------------------------|---------------------------|
     A|--------------------------|-3-3--3-3--3-3--3-3-3-3-3--|
     E|-6-6-6-6--4--4-4--4-4--6--|---------------------------|

        1:44   (here is one and one fast, not eleven)
     G|------------------------------|----------------------------------|-
     D|------------------------------|---55-5---------------------------|-
     A|------------------------------|-33--3-33-3333--3/1-11-11-11-1111-|-
     E|-11-11-11-1111--44-44-44-4444-|----------------------------------|-...
                                                                               (x1)
     --------------------------------------|
     --------------------------------------|
     --------------------------------------|
     -6/4-44-44-44-4444-4/3-33-33-33-22-11-|

        2:02   (x6)
     G|-------------------------|
     D|--5------6------7--------|
     A|------3------3------3----|
     E|-------------------------|

        2:36   (x4)
     G|--------------------------|---------------------------|
     D|--------------------------|---------------------------|
     A|--------------------------|-3-3--3-3--3-3--3-3-3-3-3--|
     E|-6-6-6-6--4--4-4--4-4--6--|---------------------------|

        3:00   (again here is one and one fast, not eleven)
     G|------------------------------|----------------------------------|
     D|------------------------------|---55-5---------------------------|
     A|------------------------------|-33--3-33-3333--3/1-11-11-11-1111-|
     E|-11-11-11-1111--44-44-44-4444-|----------------------------------|
                                                                          (x1)
     G|------------------------------|----------------------------------|-
     D|------------------------------|---55-5---------------------------|-
     A|------------------------------|-33--3-33-3333--3/1-11-11-11-1111-|-
     E|-11-11-11-1111--44-44-44-4444-|----------------------------------|-...

     --------------------------------------|
     --------------------------------------|
     --------------------------------------|
     -6/4-44-44-44-4444-4/3-33-33-33-22-11-|

        3:29   (x2)
     G|--------------------------------|-----------------------------|
     D|--------------------------------|-----------------------------|
     A|-1h3--3-3-3-3--3--3-3--3-3-3----|-1h3--3-3-3-3--3--3-3--3-3-3-|
     E|--------------------------------|-----------------------------|

        3:40  silence (bass)

        3:52   (again here is one and one, not eleven)
     G|------------------------------|----------------------------------|
     D|------------------------------|---55-5---------------------------|
     A|------------------------------|-33--3-33-3333--3/1-11-11-11-1111-|
     E|-11-11-11-1111--44-44-44-4444-|----------------------------------|
                                                                          (x2)
     G|------------------------------|----------------------------------|-
     D|------------------------------|---55-5---------------------------|-
     A|------------------------------|-33--3-33-3333--3/1-11-11-11-1111-|-
     E|-11-11-11-1111--44-44-44-4444-|----------------------------------|-...

     --------------------------------------|
     --------------------------------------|
     --------------------------------------|
     -6/4-44-44-44-4444-4/3-33-33-33-22-11-|

     end





tabbed by satan

Almost there ...

Sign in to get your own page with links to favourite songs and more. You are just one click away...

Login with Facebook Login with Google