Log in

One click and you are in

Login with Facebook Login with Google

Why sign up and log in

Guitar Tabs Explorer
Marilyn Manson guitar tabs for Golden years

Guitar tabs

Album: From Highway to Hell
As tabbed by Joe Muggah

Verse A chord diagramA majorA (Guitar 1, acoustic)
e--------0-----------------------0-------------------------
B-----------2-------3---------------2-------3--------------
G-----3----------0-----0------3----------0-----0-----------
D--4----------2------------4----------2--------------------
A----------------------------------------------------------
E----------------------------------------------------------
("Golden years...gooold...")

Riff 1
e----------------------------------------------------------
B----------------------------------------------------------
G--7---7-7---4--4--4--4---7---7-7---4--4--4--4-------------
D--7---7-7---4--4--4--4---7---7-7---4--4--4--4-------------
A--5---5-5---2--2--2--2---5---5-5---2--2--2--2-------------
E----------------------------------------------------------

Verse A chord diagramBB
e----------------------------------------------------------
B----------------------------------------------------------
G----------------------------------------------------------
D------------------------------------------2h3h4--0h1h2----
A---------0h2--5-----------0h2--5--------------------------
E-2---0------------2---0------------2---0------------------

(continued)
e----------------------------------------------------------
B----------------------------------------------------------
G----------------------------------------------------------
D-------------------------2h3h4--0h1h2---------------------
A---------0h2--5-------------------------------------------
E-2---0------------2---0-----------------------------------

Chorus
e----------------------------------------------------------
B----------------------------------------------------------
G--7---4-4-4-4---7---4-4-4-4-------------------------------
D--7---4-4-4-4---7---4-4-4-4---5--5--5--7--7--7--8-9-------
A--5---2-2-2-2---5---2-2-2-2---5--5--5--7--7--7--8-9-------
E------------------------------3--3--3--5--5--5--6-7-------
("I'll stick with you baby...")

Fill                           Verse A chord diagramC majorC
e----------------------------|-----------------------------
B----------------------------|--2----2-5----2----2-5-------
G--12-12-12-12-12--9-9-------|-----------------------------
D--12-12-12-12-12--9-9-------|-----------------------------
A--10-10-10-10-10--7-7-------|-----------------------------
E----------------------------|-----------------------------

Outro
e--14^---9\8-/9--/10-/11-/12--12^--\11-/12-----------------
B----------------------------------------------------------
G----------------------------------------------------------
D----------------------------------------------------------
A----------------------------------------------------------
E----------------------------------------------------------

Verse A chord diagramA majorA
Riff
Verse A, A chord diagramBB
Verse A chord diagramA majorA
Riff
Chorus
Fill
Verse A, A chord diagramBB
Verse A, A chord diagramC majorC
Riff
Verse A, A chord diagramBB
Verse A, A chord diagramC majorC
Chorus
Fill
Verse A chord diagramA majorA
Verse A, Outro

A chord diagramA majorA cool duo with David Bowie and Manson.

Almost there ...

Sign in to get your own page with links to favourite songs and more. You are just one click away...

Login with Facebook Login with Google