Log in

One click and you are in

Login with Facebook Login with Google

Why sign up and log in

Guitar Tabs Explorer
Marilyn Manson guitar tabs for Gods gonna cut you down

Guitar tabs with lyrics

  • Capo on 1st
Tuning: Standard (E A D G B E)

Difficulty: Novice


Intro:

e|-----------------|------------------|
B|-----1-------1---|-----1-------1----|
G|---2---2---2---2-|---2---2---2---2--|
D|-----------------|------------------|
A|-0-------0-------|-0-------0--------|
E|-----------------|------------------|

e|---------------------------|
B|-----1-------0-------------|
G|---0-------0---------------|
D|---------------------------|
A|-3-----3/5-----5/7-5-7\5-0-|
E|---------------------------|


Chorus 1:

e|-----------------|-----------------|-----------------|
B|-----1-------1---|-----3-------3---|-----1-------1---|
G|---2---2---2---2-|---2---2---2---2-|---2---2---2---2-|
D|-----------------|-0-------0-------|-----------------|
A|-0-------0-------|-----------------|-0-------0-------|
E|-----------------|-----------------|-----------------|

e|-------------------------|---------------------|
B|-----0-----1-----------1-|-----1-----0-----0---|
G|---0-----2-------0---2---|---0-----0-----0-----|
D|---------------0---------|---------------------|
A|-3-----0-----------0-----|-3-----5-----7-----0-|
E|-------------3-----------|---------------------|


Chorus 2:

e|-----------------|-----------------|-----------------|
B|-----1-------1---|-----3-------3---|-----1-------1---|
G|---2---2---2---2-|---2---2---2---2-|---2---2---2---2-|
D|-----------------|-0-------0-------|-----------------|
A|-0-------0-------|-----------------|-0-------0-------|
E|-----------------|-----------------|-----------------|

e|-------------------------|---------------------|
B|-----0-----1-----------1-|-----1-----0-----0---|
G|---0-----2-------0---2---|---0-----0-----0-----|
D|---------------0---------|---------------------|
A|-3-----0-----------0-----|-3-----5-----7-----0-|
E|-------------3-----------|---------------------|


Verse 1:

Well, my goodness gracious, let me tell you the news

e|----------0---------------------------------------|
B|----------1---------------------------------------|
G|----------2---------------------------------------|
D|----------2---------------------------------------|
A|----------0---------------------------------------|
E|--------------------------------------------------|

My head's been wet with the midnight dew

e|----0---------------------------------------------|
B|----1---------------------------------------------|
G|----2---------------------------------------------|
D|----2---------------------------------------------|
A|----0---------------------------------------------|
E|--------------------------------------------------|

I've been down on bended knee, talkin' to the man from Galilee

e|-0------------------------------------------------|
B|-1------------------------------------------------|
G|-2------------------------------------------------|
D|-2------------------------------------------------|
A|-0------------------------------------------------|
E|--------------------------------------------------|

He spoke to me in his voice so sweet

e|-0------------------------------------------------|
B|-1------------------------------------------------|
G|-2------------------------------------------------|
D|-2------------------------------------------------|
A|-0------------------------------------------------|
E|--------------------------------------------------|

I thought that I heard the shuffle of angel's feet

e|-0------------------------------------------------|
B|-1------------------------------------------------|
G|-2------------------------------------------------|
D|-2------------------------------------------------|
A|-0------------------------------------------------|
E|--------------------------------------------------|

He called my name and my heart stood still

e|-0------------------------------------------------|
B|-1------------------------------------------------|
G|-2------------------------------------------------|
D|-2------------------------------------------------|
A|-0------------------------------------------------|
E|--------------------------------------------------|

When he said, "John, go do My will"

e|---------------0----------------------------------|
B|---------------1----------------------------------|
G|---------------0----------------------------------|
D|---------------2----------------------------------|
A|---------------3----------------------------------|
E|--------------------------------------------------|


Chorus 2:

e|-----------------|-----------------|-----------------|
B|-----1-------1---|-----3-------3---|-----1-------1---|
G|---2---2---2---2-|---2---2---2---2-|---2---2---2---2-|
D|-----------------|-0-------0-------|-----------------|
A|-0-------0-------|-----------------|-0-------0-------|
E|-----------------|-----------------|-----------------|

e|-------------------------|---------------------|
B|-----0-----1-----------1-|-----1-----0-----0---|
G|---0-----2-------0---2---|---0-----0-----0-----|
D|---------------0---------|---------------------|
A|-3-----0-----------0-----|-3-----5-----7-----0-|
E|-------------3-----------|---------------------|


Chorus 1:

e|-----------------|-----------------|-----------------|
B|-----1-------1---|-----3-------3---|-----1-------1---|
G|---2---2---2---2-|---2---2---2---2-|---2---2---2---2-|
D|-----------------|-0-------0-------|-----------------|
A|-0-------0-------|-----------------|-0-------0-------|
E|-----------------|-----------------|-----------------|

e|-------------------------|---------------------|
B|-----0-----1-----------1-|-----1-----0-----0---|
G|---0-----2-------0---2---|---0-----0-----0-----|
D|---------------0---------|---------------------|
A|-3-----0-----------0-----|-3-----5-----7-----0-|
E|-------------3-----------|---------------------|


Verse 2:

Well, you may throw your rock and hide your hand

e|-0------------------------------------------------|
B|-1------------------------------------------------|
G|-2------------------------------------------------|
D|-2------------------------------------------------|
A|-0------------------------------------------------|
E|--------------------------------------------------|

Workin' in the dark against your fellow man

e|-0------------------------------------------------|
B|-1------------------------------------------------|
G|-2------------------------------------------------|
D|-2------------------------------------------------|
A|-0------------------------------------------------|
E|--------------------------------------------------|

But as sure as God made black and white

e|------0-------------------------------------------|
B|------1-------------------------------------------|
G|------2-------------------------------------------|
D|------2-------------------------------------------|
A|------0-------------------------------------------|
E|--------------------------------------------------|

What's done in the dark will be brought to the light

e|------0-------------------------------------------|
B|------1-------------------------------------------|
G|------2-------------------------------------------|
D|------2-------------------------------------------|
A|------0-------------------------------------------|
E|--------------------------------------------------|

What's done in the dark will be brought to the light

e|------0-------------------------------------------|
B|------1-------------------------------------------|
G|------2-------------------------------------------|
D|------2-------------------------------------------|
A|------0-------------------------------------------|
E|--------------------------------------------------|


Chorus 1:

e|-----------------|-----------------|-----------------|
B|-----1-------1---|-----3-------3---|-----1-------1---|
G|---2---2---2---2-|---2---2---2---2-|---2---2---2---2-|
D|-----------------|-0-------0-------|-----------------|
A|-0-------0-------|-----------------|-0-------0-------|
E|-----------------|-----------------|-----------------|

e|-------------------------|---------------------|
B|-----0-----1-----------1-|-----1-----0-----0---|
G|---0-----2-------0---2---|---0-----0-----0-----|
D|---------------0---------|---------------------|
A|-3-----0-----------0-----|-3-----5-----7-----0-|
E|-------------3-----------|---------------------|


Chorus 2:

e|-----------------|-----------------|-----------------|
B|-----1-------1---|-----3-------3---|-----1-------1---|
G|---2---2---2---2-|---2---2---2---2-|---2---2---2---2-|
D|-----------------|-0-------0-------|-----------------|
A|-0-------0-------|-----------------|-0-------0-------|
E|-----------------|-----------------|-----------------|

e|-------------------------|---------------------|
B|-----0-----1-----------1-|-----1-----0-----0---|
G|---0-----2-------0---2---|---0-----0-----0-----|
D|---------------0---------|---------------------|
A|-3-----0-----------0-----|-3-----5-----7-----0-|
E|-------------3-----------|---------------------|

Lyrics of Chorus 1:
You can run on for a long time
Run on for a long time
Run on for a long time
Sooner or later, God'll cut you down
Sooner of later, God'll cut you down

Lyrics of Chorus 2:
Go tell that long tongue liar
Go and tell that midnight rider
Tell the rambler, the gambler, the back biter
Tell 'em that God's gonna cut 'em down
Tell 'em that God's gonna cut 'em down


************************************

| /   Slide up
| \   Slide down

************************************

Other versions of Gods Gonna Cut You Down

Gods gonna cut you downChords

Almost there ...

Sign in to get your own page with links to favourite songs and more. You are just one click away...

Login with Facebook Login with Google