Log in

One click and you are in

Login with Facebook Login with Google

Why sign up and log in

Guitar Tabs Explorer
Marilyn Manson guitar tabs for Godeatgod

Guitar tabs

Album: Holy Wood
As tabbed by Joe Muggah

Dropped A chord diagramD MajorD tuning

Verse
e-1-----1-----0----0----------------------------------
B----3-----3-----3----3---0-2-3-2-----2-3-2-----------
G-----------------------------------2-----------------
D-----------------------------------------------------
A-----------------------------------------------------
D-----------------------------------------------------
("Dear God...")

Chorus A chord diagramA majorA (Guitar 1)
e-----------------------------------------------------
B-----------------------------------------------------
G-----------------------------------------------------
D-----------------------------------------------------
A-2-2-2-2-4-4-4-4-5-5-5-5-5-5-5-5-4-------------------
D-0-0-0-0-0-0-0-0-0-0-0-0-0-0-0-0-0-------------------
("Before the bullet...")

Chorus A chord diagramBB (Guitar 2)
e-------------------------------------------1-0---1/10
B-0-2-2-3^--3-0-3-2^--0-2-2-3^--3-0-3-2^--3-----------
G-----------------------------------------------------
D-----------------------------------------------------
A-----------------------------------------------------
D-----------------------------------------------------

Verse
Chorus A chord diagramA majorA
Chorus A, A chord diagramBB
Verse
Chorus A chord diagramA majorA (palm-muted and distorted), A chord diagramBB

Almost there ...

Sign in to get your own page with links to favourite songs and more. You are just one click away...

Login with Facebook Login with Google