Search tabs and chords

Search for song, artist or band

Log in

One click and you are in

Login with Facebook Login with Google

Why sign up and log in

Guitar Tabs Explorer
Marilyn Manson bass tabs for Godeatgod

Bass tabs

Track 2 from Holy Wood (In the Shadow of the Valley of Death) - GodEatGod

Tuning - Standard

                 Intro
G |-------------------|-------------------|
D |--0-0-0-0-0-0-0-0--|-------------------| X2
A |-------------------|--2-2-2-2-0-0-0-0--|
E |-------------------|-------------------|

                     Verse
G |-------------------|-------------------|
D |--0-0-0-0-0-0-0-0--|-------------------| X4
A |-------------------|--2-2-2-2-0-0-0-0--|
E |-------------------|-------------------|

Chorus - No Bass

Repeat Intro - X2
Repeat Verse - X1

Almost there ...

Sign in to get your own page with links to favourite songs and more. You are just one click away...

Login with Facebook Login with Google