Log in

One click and you are in

Login with Facebook Login with Google

Why sign up and log in

Guitar Tabs Explorer
Marilyn Manson guitar tabs for Get your gunn

Guitar tabs

More accurate than the one currently archived, and has a lot of extras.

Album: Portrait of an Amercian Family
As tabbed by Joe Muggah
Intro
e------|-------------------------------------------------
B------|-------------------------------------------------
G------|-------------------------------------------------
D------|-----2----------------------2--------------------
A--7/--|-----------2--1--1/5\-------------2--1---1/5\----
E------|--0-----0----------------0-----0-----------------
("Goddamn your...")


Verse                             Riff 1 (sax for guitar)
e--------------------------------|-----------------------
B--------------------------------|-----------------------
G--------------------------------|-----------------------
D--2--2--2---8\---2--2--2---8\---|-----------------------
A--2--2--2---8\---2--2--2---8\---|-----------------------
E--0--0--0---6\---0--0--0---6\---|--0--0--0---6----------
("I bash myself to sleep...")


Chorus
e-------------------------------------------------------
B-------------------------------------------------------
G--9-9-9------------------------------------------------
D--9-9-9--8-8-8--5-5-5-5-5-5--6-6--5-5---2-2-2--8-8-8---
A--7-7-7--8-8-8--5-5-5-5-5-5--6-6--5-5---2-2-2--8-8-8---
E---------6-6-6--3-3-3-3-3-3--4-4--3-3---0-0-0--6-6-6---
("Pseudo-morals work real well...")

(continued)
e-------------------------------------------------------
B-------------------------------------------------------
G--10-10-10-10--12-12-----------------------------------
D--10-10-10-10--12-12-----------------------------------
A---8--8--8--8--10-10-----------------------------------
E-------------------------------------------------------

Riff 2 (Sax for guitar)
e-------------------------------------------------------
B-------------------------------------------------------
G-----9------------9------------9------------9----------
D----------9-8----------9-8----------9-8----------9-8---
A--7----7--------7---7--------7---7--------7---7------7-
E-------------------------------------------------------


Riff 3 (Synthasizer for guitar)
e-------------------------------------------------------
B-------------------------------------------------------
G-----9---------------9---------------------------------
D--------9-8--------------9-8---------------------------
A--7---------10----7----------10------------------------
E-------------------------------------------------------


Intro

Riff 1

Verse

Chorus

Verse

Verse, Riff 2

Riff 1

Verse, Riff 1

Chorus

Verse

Riff 1

Riff 3

Chorus

Verse, Riff 1

There's a sax solo in this song which is almost impossible
to tab, so I didn't.

Other versions of Get Your Gunn

Get your gunnChords

Almost there ...

Sign in to get your own page with links to favourite songs and more. You are just one click away...

Login with Facebook Login with Google