Log in

One click and you are in

Login with Facebook Login with Google

Why sign up and log in

Guitar Tabs Explorer
Marilyn Manson bass tabs for Fundamentally loathsome

Fundamentally Loathsome bass tab by Marilyn Manson

Marilyn Manson bass tabs for Fundamentally loathsome

Bass tabs

Track 12 from Mechanical Animals - Fundamentally Loathsome

Tuning - Standard

                           Verse
G |--------------------------------|--------------------------------|
D |--------------------------------|--------------------------------| X2
A |--------------------------------|--------------------------------|
E |--5------5------5------5-----4--|--3------3------3------0--3--4--|

G |--------------------------------|--------------------------------|
D |--------------------------------|--------------------------------|
A |--------------------------------|--------------------------------|
E |--5------5------5------5-----4--|--3------3------3------3-----3--|

G |----------------------------------|---------------------------------|
D |----------------------------------|---------------------------------|
A |----------------------------------|---------------------------------|
E |--2------2-----2--1------1-----1--|--0------0------0------12\----0--|

                      Chorus
G |---------------------------|--------------------------|
D |---------------------------|--------------------------|
A |---------------------------|---------9----------------|
E |--3------3------3------3/--|--7-------------7------7--|

G |--------------------------|-----------------------------|
D |--------------------------|-----------------------------|
A |---------5----------------|-----------------------------|
E |--3-------------2------2--|--0------0------10------10\--|

G |-----------------------------|--------------------------|
D |-----------------------------|--------------------------|
A |-----------------------------|---------9----------------|
E |--3-3------3------3------3/--|--7-------------7------7--|

G |--------------------------|------------------------------|
D |--------------------------|------------------------------|
A |---------5----------------|------------------------------|
E |--3-------------2------2--|--0------0------10------10\3--|

                              Verse II
G |--------------------------------|--------------------------------|
D |--------------------------------|--------------------------------| X2
A |--------------------------------|--------------------------------|
E |--5------5------5------5-----4--|--3------3------3------0--3--4--|

G |--------------------------------|--------------------------------|
D |--------------------------------|--------------------------------|
A |--------------------------------|--------------------------------|
E |--5------5------5------5-----4--|--3------3------3------3-----3--|

G |----------------------------------|---------------------------------|
D |----------------------------------|---------------------------------|
A |----------------------------------|---------------------------------|
E |--2------2-----2--1------1-----1--|--0------0------0------12\----0--|

                          Chorus II
G |-----------------------------|--------------------------|
D |-----------------------------|--------------------------|
A |-----------------------------|---------9----------------|
E |--3-3------3------3------3/--|--7-------------7------7--|

G |--------------------------|------------------------------|
D |--------------------------|------------------------------|
A |---------5----------------|------------------------------|
E |--3-------------2------2--|--0------0------10------10\--|

G |-----------------------------|--------------------------|
D |-----------------------------|--------------------------|
A |-----------------------------|---------9----------------|
E |--3-3------3------3------3/--|--7-------------7------7--|

G |--------------------------|-----------------------------|
D |--------------------------|-----------------------------|
A |---------5----------------|-----------------------------|
E |--3-------------2------2--|--0------0------10------10\--|

                          Bridge/Solo
G |--------------------------------|--------------------------------|
D |--------------------------------|--------------------------------| X2
A |--------------------------------|--------------------------------|
E |--5------5------5------5-----4--|--3------3------3------0--3--4--|

G |--------------------------------|--------------------------------|
D |--------------------------------|--------------------------------|
A |--------------------------------|--------------------------------|
E |--5------5------5------5-----4--|--3------3------3------3-----3--|

G |----------------------------------|
D |----------------------------------|
A |----------------------------------|
E |--2------2-----2--1------1-----1--|

G |-------------------------|
D |-------------------------|
A |-------------------------|
E |--0-0-0-0-0-0-0-0-0-0-0--|

G |---------------------------------------|
D |---------------------------------------| X4
A |--10--------9--------7--------2--3--2--|
E |------0--0-----0--0-----0--0-----------|

G |--------------------|--------------------|--------------------------------------|
D |--------------------|--------------------|--------------------------------------|
A |--2--2--2--2--2--2--|--------------------|--3--3--3--3--3--3--2--2--2--6--6--6--|
E |--------------------|--2--2--2--2--2--2--|--------------------------------------|

                          Outro
G |--------------------------|--------------------------|
D |--------------------------|--------------------------| X11
A |--------------------------|--1------1------0---------|
E |--0------0------3------3--|-----------------------3--|

Almost there ...

Sign in to get your own page with links to favourite songs and more. You are just one click away...

Login with Facebook Login with Google