Search tabs and chords

Search for song, artist or band

Log in

One click and you are in

Login with Facebook Login with Google

Why sign up and log in

Guitar Tabs Explorer
Marilyn Manson guitar chords for Four rusted horses

Guitar chords with lyrics

Intro:
e|------------------------------------------|
B|------------------------------------------|
G|------------------------------------------|
D|---------2------------2--------------2----|
A|------------------------------------------|
E|-0--3---------0--3-----------0--3---------|

e|---------------------------------------------|
B|----------------------------------------3--3-|
G|----------------------------------------2--2-|
D|---------2------------2--------------2--0--0-|
A|---------------------------------------------|
E|-0--3---------0--3-----------0--3------------|

Verse:
e|------------------------------------------|
B|------------------------------------------|
G|------------------------------------------|
D|---------2------------2--------------2----|
A|------------------------------------------|
E|-0--3---------0--3-----------0--3---------|

e|---------------------------------------------|
B|----------------------------------------3--3-|
G|----------------------------------------2--2-|
D|---------2------------2--------------2--0--0-|
A|---------------------------------------------|
E|-0--3---------0--3-----------0--3------------|

Verse 1:
N.C.
Who'll ride this dying carousel?
N.C.
Four rusting horses strangled by their own rope.
N.C.
What children love,
N.C.
a singing wheel now that their tight hearts sit broke.
N.C.
Now that their tight hearts sit broke.

Chorus:
A chord diagramCadd9Cadd9
Everyone will come, everyone will come
      A chord diagramD5D5
to my funeral to make sure that I stay dead.
A chord diagramCadd9Cadd9
Everyone will come, everyone will come
      A chord diagramD5D5
to my funeral to make sure that I stay dead.

Verse 2:
N.C.
I can see the coffin shining through my tinted window,
N.C.
must've missed the sign that said it was a fire sale.
N.C.
I can see the coffin shining through my tinted window,
N.C.
must've missed the sign that said it was a fire sale.

Chorus:
A chord diagramCadd9Cadd9
Everyone will come, everyone will come
      A chord diagramD5D5
to my funeral to make sure that I stay dead.
A chord diagramCadd9Cadd9
Everyone will come, everyone will come
      A chord diagramD5D5
to my funeral to make sure that I stay dead.

Bridge:
A chord diagramG MajorG              A chord diagramD5D5
You can't take this from me,
A chord diagramE minorEm
forbidden in Heaven and useless in Hell.
A chord diagramG MajorG              A chord diagramD5D5
You can't take this from me,
A chord diagramE minorEm
forbidden in Heaven and useless in Hell.
A chord diagramG MajorG              A chord diagramD5D5
You can't take this from me,
A chord diagramE minorEm
forbidden in Heaven and useless in Hell.
A chord diagramG MajorG              A chord diagramD5D5
You can't take this from me,
A chord diagramE minorEm
forbidden in Heaven and useless in Hell.

Verse 3:
N.C.
Who'll ride this dying carousel?
N.C.
Four rusting horses strangled by their own rope.
N.C.
What children love,
N.C.
a singing wheel now that their tight hearts sit broke.
N.C.
That their tight hearts sit broke.
N.C.
Now that their tight hearts sit broke.

Other versions of Four Rusted Horses

Four rusted horses acousticChords
Four rusted horsesTabs

Almost there ...

Sign in to get your own page with links to favourite songs and more. You are just one click away...

Login with Facebook Login with Google