Search tabs and chords

Search for song, artist or band

Log in

One click and you are in

Login with Facebook Login with Google

Why sign up and log in

Guitar Tabs Explorer
Marilyn Manson bass tabs for Eat me drink me

Bass tabs

Tabbed by a fan. I do not own the song in any way.
From album: "Eat me, Drink me".

Bass tuning: Standard E

Intro:
|----------------------------------|
|----------------------------------|
|----------------------------------| x6
|----------------------------------|

Intro (with bass) (x2):
|----------------------------------|----------------------------------|
|----------------------------------|----------------------------------|
|-3/5------------------------------|-3--------------------------------|
|----------------------------------|----------------------------------|

						     In the wasteland...
|----------------------------------|----------------------------------|
|-5--------------------------------|-7---------------3-------2--------|
|----------------------------------|----------------------------------|
|----------------------------------|----------------------------------|

Main theme (x6):
|----------------------------------|----------------------------------|
|----------------------------------|----------------------------------|
|-5---5---5---5---5---5---5---5----|-3---3---3---3---3---3---3---3----|
|----------------------------------|----------------------------------|

|----------------------------------|----------------------------------|
|-5---5---5---5---5---5---5---5----|-3---3---3---3---3/8-----7--------|
|----------------------------------|----------------------------------|
|----------------------------------|----------------------------------|

Then:
|----------------------------------|
|-1--------------------------------|
|----------------------------------|
|----------------------------------|

|----------------------------------|
|----------------------------------|
|----------------------------------| x7
|----------------------------------|

Then Main theme x4

Interlude:
Part A x2
|----------------------------------|----------------------------------|
|-0--------------------------------|-0---0----------------------------|
|----------------------------------|----------------------------------|
|----------------------------------|----------------------------------|

|----------------------------------|----------------------------------|
|-2--------------------------------|-2---2----------------------------|
|----------------------------------|----------------------------------|
|----------------------------------|----------------------------------|

Part B
|----------------------------------|----------------------------------|
|-3--------------------------------|-3---3-----------3---5---7---8----|
|----------------------------------|----------------------------------|
|----------------------------------|----------------------------------|

|----------------------------------|----------------------------------|
|-7--------------------------------|\2---2----------------------------|
|----------------------------------|----------------------------------|
|----------------------------------|----------------------------------|

|----------------------------------|
|----------------------------------|
|----------------------------------| x3
|----------------------------------|

Then main theme x6

Almost there ...

Sign in to get your own page with links to favourite songs and more. You are just one click away...

Login with Facebook Login with Google